Song name
# A B C D E F G H I J K L M N O P Q R S T U V W X Y Z

Aztec Camera - Jump tab

-------------------------------------------------------------------------------
                             Jump - Aztec Camera
-------------------------------------------------------------------------------
Tabbed by:M.Woods       
E-mail:mattdub70@gmail.com

Tuning:Standard

Intro  
    Csus2  C        F        F      G      G             Csus2  C      C

e|---------0---|----1--------1------3------3----|---------0-----1------1-----|
B|----3----5---|----1--------1------3------3----|---------5-----1------1-----|
G|----5----5---|----2--------2------4------4----|---------5-----2------2-----|
D|----5----5---|----3--------3------5------5----|---------5-----3------3-----|
A|----3--------|----3--------3------5------5----|---------------3------3-----|
E|-------------|-------------1------3------3----|---------------1------1-----|



              F   Gadd11
                   Let ring  
e|--(1)-------1-----------||----------------------0---|----1-------1-----3--------|
B|--(1)-------1----1------||-----------------3----5---|----1-------1-----3--------|
G|--(2)------------0------||-----------------5----5---|----2-------2-----4--------|
D|--(3)-------3----0------||-----------------5----5---|----3-------3-----4--------|
A|--(3)-------3----2------||---------3---5---3--------|----3-------3-----5--------|
E|--(1)------------3------||--3---5-------------------|------------1-----3-----3--|




                                          let ring
                                          End Intro
e|---------0-----1------1-----|-----1----------||
B|---------5-----1------1-----|-----1-----1----|| 
G|---------5-----2------2-----|-----------0----|| 
D|------5--5-----3------3-----|-----3-----0----|| 
A|--5------------3------3-----|-----3-----2----|| 
E|---------------1------1-----|-----------3----|| 


Verse (virtually the same)

e|-------------0---|----1--------1------3------3----|
B|--------3----5---|----1--------1------3------3----|
G|--------5----5---|----2--------2------4------4----|
D|--------5----5---|----3--------3------5------5----|
A|--------3--------|----3--------3------5------5----|
E|-----------------|-------------1------3------3----|

 I get up                       and nothing gets me

 You've got it tough            I've seen the toughest

e|---------0-----1------1-----|-----1----------||
B|---------5-----1------1-----|-----1-----1----|| 
G|---------5-----2------2-----|-----------0----|| 
D|------5--5-----3------3-----|-----3-----0----|| 
A|--5------------3------3-----|-----3-----2----|| 
E|---------------1------1-----|-----------3----|| 
    
    down---

    around. 
          

Bridge

e|------------5---7------------7--|--8-----------5------------------|
B|---------5---------5------------|-----5------------5--------------|
G|------5---------------5---------|--------5-------------5----------|
D|---5---------------------5------|-------------------------5-------|
A|--------------------------------|---------------------------------|
E|--------------------------------|---------------------------------|

Can't you see me standing here, I've got my back against the record 


                             F                F
                             Let ring
e|---------------------------1---|------------1---1---------|-----------------------1---|
B|--------1-------------1----1---|--------1---1------1------|-------1-----------1---1---|
G|-----2-------------2-------2---|-----2------2---------2---|-----2----------2------2---|
D|--3---------3---2--------------|--2-----------------------|---3------3--2-------------|
A|-------------------------------|--------------------------|---------------------------|
E|--------------------------------------------------------------------------------------|

machine----                        I ain't the worst that you've seen---        
                
                             G          

e|---------------------------3---|----------3-------------3----| Go back to Verse.
B|--------1-------------1----3---|----------3-------------3----|
G|-----2-------------2-------0---|------0-------------0--------|
D|--3---------3---2----------0---|--0-------------0------------|
A|---------------------------2---|-----------------------------|
E|---------------------------3---|-----------------------------|

can't you see what I mean-------------                   awww, might as well jump.  



************************************

That's it. 

************************************
Tap to rate this tab
# A B C D E F G H I J K L M N O P Q R S T U V W X Y Z