Song name
# A B C D E F G H I J K L M N O P Q R S T U V W X Y Z

Baby Strange - Friend chords

Highlighted       Show chord diagrams
BABY STRANGE-FRIEND 

Please don't rate on lyrics coz I have worked them out by ear.
But corrections are welcome for guitars and lyrics 
Listen to song for timings


e|-------------------------------------------------------------------------|
B|-------------------------------------------------------------------------|
G|-------------------------------------------------------------------------|
D|-------------------------------------------------------------------------|
A|-----------------------------------------------7-7-7-7-7-7-7-7-----------|
E|7-7-7-7-7-7-7-7-5-5-5-5-5-5-5-5-7-7-7-7-7-7-7-7--------------------------|
  Get back to my friend I don't wanna see you round here again

C#        B
Oooooh oh oh
B
She'll kiss anything
F#
she's got a heart and they've got two legs
             E
she wants to get a life
      F#           B
she's got no place to go


B
She'll kiss anything
             F# 
give her the eye and she'll take you home
         E            F#                  B
you want her alot but she's not safe here I know


B              A
Get back to my friend 
  B                         E
I never wanna see you round here again
A         B
Oooooh oh oh

B
i wanna run run, never please
D
i can't eat if the girls can't eat
E             D               B
it's alright, it's alright to me


e|-7-7---------|
B|-9-7---------|
G|-9-7---------|
D|-9-7---------|
A|-7-7---------|
E|-------------|


(Muted)
B
i tell her run run, but she's never gonna leave
F#
the girl won't go the girls not pleased
E                    F#                 B 
forgotten her name i think she stole my keys 

e|-7-7---------|
B|-9-7---------|
G|-9-7---------|
D|-9-7---------|
A|-7-7---------|
E|-------------|


B              A
Get back to my friend 
  B                         E
I never wanna see you round here again
A         B 
Oooooh oh oh

B              A
Get back to my friend 
  B                         E
I never wanna see you round here again
A         B
Oooooh oh oh

D,B,D,B,D,B
F#


D,B,D,B,D,B
F#

e|-------------------0------------------|
B|-------------------0------------------|
G|-----------7-------1------------------|
D|-----------7-7-9---2------------------|
A|-----------5-7-9---2------------------|
E|-77777-555---5-7---0------------------|


Get back to my friend 
I never wanna see you round here again
A         B
Oooooh oh oh


B              A
Get back to my friend 
  B                         E
I never wanna see you round here again
A         B   A B
Oooooh oh oh
Tap to rate this tab
# A B C D E F G H I J K L M N O P Q R S T U V W X Y Z