Song name
# A B C D E F G H I J K L M N O P Q R S T U V W X Y Z

Back-on - Chain Acousitc tab

   I've been playing the guitar for just 2 weeks in my life and decided to make a tab of 
of my favorite songs. It's still in progress.
   I used this link: http://www.youtube.com/watch?v=g4-bxsNbwQw to transcribe the tabs.

Contact me if you have any questions @
   JustinKim415@gmail.com

Guitar Intro/Chorus
e|-3---------3-----3----------------------------|
B|--------4------4------6--------6-----6--------|
G|----5--------5--------------7------7----------|
D|---5---------------------8-------8------------|
A|------------------------8---------------------|
E|----------------------------------------------|

Guitar Solo Part 2
e|----12--14--15--17-------12--14--15--17-------|
B|-15-------------------15----------------------|
G|----------------------------------------------|
D|----------------------------------------------|
A|----------------------------------------------|
E|----------------------------------------------|

e|----12--14--15--17--15--14-----12-----|
B|-15-------------------------15----15--|
G|--------------------------------------|
D|--------------------------------------|
A|--------------------------------------|
E|--------------------------------------|

e|----12--14--15--17-------12--14--15--17--15--14----19--17-----|
B|-15-------------------15------------------------15------------|
G|--------------------------------------------------------------|
D|--------------------------------------------------------------|
A|--------------------------------------------------------------|
E|--------------------------------------------------------------|
Tap to rate this tab
# A B C D E F G H I J K L M N O P Q R S T U V W X Y Z