Song name
# A B C D E F G H I J K L M N O P Q R S T U V W X Y Z

Backyard Babies - Minus Celsius tab

Tabbed by: GraMPoy

Artist: Backyard Babies
Song: Minus Celsius 
Album: Stockholm Syndrome

Listen to the song to get the timing right.

Intro:

E|-----------------------------------------------------------------|
B|-----------------------------------------------------------------|
G|-7-9-10---------10-12-14-14-14-14--------------------------------|
D|-0-0--0-0-0-0-0-0--0--0--0--0--0---7-----7---7-----7---7---7---7-|
A|-----------------------------------0-0-0-0-0-0-0-0-0-0-0-0-0-0-0-|
E|-----------------------------------------------------------------|


E|------------------------------------|
B|------------------------------------|
G|-14-14-14-14-12-10---------10-9--7--|
D|-0--0--0--0--0--0-0-0-0-0--0--0--0--|
A|------------------------------------|
E|------------------------------------|

Guitar 1:

E|-----------------------------------------------------------------|
B|-----------------------------------------------------------------|
G|-7-9-10---------10-12-14-14-14-14--------------------------------|
D|-0-0--0-0-0-0-0-0--0--0--0--0--0---7-----7---7-----7---7---7---7-|x2
A|-----------------------------------0-0-0-0-0-0-0-0-0-0-0-0-0-0-0-|
E|-----------------------------------------------------------------|

Guitar 2:

E|-----------------------------------------------------------------|
B|-----------------------------------------------------------------|
G|--7-7-7-7-7-7-7-7-7-7-7-7-7-7-7-7--------------------------------|
D|--7-7-7-7-7-7-7-7-7-7-7-7-7-7-7-7-7-7-7-7-7-7-7-7-7-7-7-7-7-7-7-7|x2
A|--5-5-5-5-5-5-5-5-5-5-5-5-5-5-5-5-7-7-7-7-7-7-7-7-7-7-7-7-7-7-7-7|
E|----------------------------------5-5-5-5-5-5-5-5-5-5-5-5-5-5-5-5|


Verse:

Guitar 1:

E|--------------------------------------------------------------|
B|--------------------------------------------------------------|
G|-7-9-10---------10-12-14-14-14-14-----------------------------|
D|-0-0--0-0-0-0-0-0--0--0--0--0--0---7-----7---7-----7---7---7--|
A|-----------------------------------0-0-0-0-0-0-0-0-0-0-0-0-0--|
E|--------------------------------------------------------------|

E|--------------------------------------------------------------|
B|--------------------------------------------------------------|
G|-7-9-10---------10-12-14-14-14-14--------------------------7b-|
D|-0-0--0-0-0-0-0-0--0--0--0--0--0---7-----7---7-----7---7-10---|
A|-----------------------------------0-0-0-0-0-0-0-0-0-0-0------|
E|--------------------------------------------------------------|

E|--------------------------------------------------------------|
B|--------------------------------------------------------------|
G|-7-9-10---------10-12-14-14-14-14-----------------------------|
D|-0-0--0-0-0-0-0-0--0--0--0--0--0---7-----7---7-----7---7---7--|
A|-----------------------------------0-0-0-0-0-0-0-0-0-0-0-0-0--|
E|--------------------------------------------------------------|

E|--------------------------------------------------------------|
B|--------------------------------------------------------------|
G|-7-9-10---------10-12-14-14-14-14--------------------------7b-|
D|-0-0--0-0-0-0-0-0--0--0--0--0--0---7-----7---7-----7---7-10---|
A|-----------------------------------0-0-0-0-0-0-0-0-0-0-0------|
E|--------------------------------------------------------------|

Guitar 2: 

E|-----------------------------------------------------------------|
B|-----------------------------------------------------------------|
G|--7-7-7-7-7-7-7-7-7-7-7-7-7-7-7-7--------------------------------|
D|--7-7-7-7-7-7-7-7-7-7-7-7-7-7-7-7-7-7-7-7-7-7-7-7-7-7-7-7-7-7-7-7|x4
A|--5-5-5-5-5-5-5-5-5-5-5-5-5-5-5-5-7-7-7-7-7-7-7-7-7-7-7-7-7-7-7-7|
E|----------------------------------5-5-5-5-5-5-5-5-5-5-5-5-5-5-5-5|

At the end of the verse, there's a guitar in the background playing something like this:

E|-----------|
B|-----------|
G|--7b--9p7b-|
D|-----------|
A|-----------|


Pre-Chorus:

E|---------------5----|
B|-----------------6--|
G|-----------7-------7|
D|--5------5-7--------|
A|--5------5-5--------|
E|--3------3----------|

E|------------------------------------------------------------------|
G|------------------------------------------------------------------|
D|--5-5-5-5-5-5-5-5-5-5-5-5-5-5-5-5-7-7-7-7-7-7-7-7-7-7-7-7-7-7-7-7-|
A|--5-5-5-5-5-5-5-5-5-5-5-5-5-5-5-5-7-7-7-7-7-7-7-7-7-7-7-7-7-7-7-7-|
E|--3-3-3-3-3-3-3-3-3-3-3-3-3-3-3-3-5-5-5-5-5-5-5-5-5-5-5-5-5-5-5-5-|


Chorus: 


Guitar 1:

E|--------------------------------------------------------------------------|
B|--------------------------------------------------------------------------|
G|--7-7-7-7-7---------------------5-5-5-5-5-7-7-7-7-7-----------------------|
D|--7-7-7-7-7-8-8-8-8-8-5-5-5-5-5-5-5-5-5-5-7-7-7-7-7-7-7-7-7-7-5-5-5-5-5---|
A|--5-5-5-5-5-8-8-8-8-8-5-5-5-5-5-3-3-3-3-3-5-5-5-5-5-7-7-7-7-7-5-5-5-5-5---|
E|------------6-6-6-6-6-3-3-3-3-3---------------------5-5-5-5-5-3-3-3-3-3---|


Guitar 2:

E|--------------------------------------------------------------------------|
B|--------------------------------------------------------------------------|
G|--7-7-7-7-7---------------------5-5-5-5-5-7-9-10------------10------------|
D|--7-7-7-7-7-8-8-8-8-8-5-5-5-5-5-5-5-5-5-5-0-0-0-0-0-0-7-9-0-0-5-5-5-5-5---|
A|--5-5-5-5-5-8-8-8-8-8-5-5-5-5-5-3-3-3-3-3---------------0-0---5-5-5-5-5---|
E|------------6-6-6-6-6-3-3-3-3-3-------------------------------3-3-3-3-3---|



2nd verse:

Guitar 1:

E|--------------------------------------------------------------|
B|--------------------------------------------------------------|
G|-7-9-10---------10-12-14-14-14-14-----------------------------|
D|-0-0--0-0-0-0-0-0--0--0--0--0--0---7-----7---7-----7---7---7--|
A|-----------------------------------0-0-0-0-0-0-0-0-0-0-0-0-0--|
E|--------------------------------------------------------------|

E|--------------------------------------------------------------|
B|--------------------------------------------------------------|
G|-7-9-10---------10-12-14-14-14-14--------------------------7b-|
D|-0-0--0-0-0-0-0-0--0--0--0--0--0---7-----7---7-----7---7-10---|
A|-----------------------------------0-0-0-0-0-0-0-0-0-0-0------|
E|--------------------------------------------------------------|

E|---------------17----15----------------------------------------------|
B|---15b----15b------------17b-----------------------------------------|
G|---------------------------------------------------------------------|
D|---------------------------------------------------------------------|
A|---------------------------------------------------------------------|
E|---------------------------------------------------------------------|

E|--------------------------------------------------------------|
B|--------------------------------------------------------------|
G|-7-9-10---------10-12-14-14-14-14--------------------------7b-|
D|-0-0--0-0-0-0-0-0--0--0--0--0--0---7-----7---7-----7---7-10---|
A|-----------------------------------0-0-0-0-0-0-0-0-0-0-0------|
E|--------------------------------------------------------------|

Guitar 2: 

E|-----------------------------------------------------------------|
B|-----------------------------------------------------------------|
G|--7-7-7-7-7-7-7-7-7-7-7-7-7-7-7-7--------------------------------|
D|--7-7-7-7-7-7-7-7-7-7-7-7-7-7-7-7-7-7-7-7-7-7-7-7-7-7-7-7-7-7-7-7|x4
A|--5-5-5-5-5-5-5-5-5-5-5-5-5-5-5-5-7-7-7-7-7-7-7-7-7-7-7-7-7-7-7-7|
E|----------------------------------5-5-5-5-5-5-5-5-5-5-5-5-5-5-5-5|


E|-----------|
B|-----------|
G|--7b--9p7b-|
D|-----------|
A|-----------|


Pre-Chorus:

E|---------------5----|
B|-----------------6--|
G|-----------7-------7|
D|--5------5-7--------|
A|--5------5-5--------|
E|--3------3----------|

E|------------------------------------------------------------------|
G|------------------------------------------------------------------|
D|--5-5-5-5-5-5-5-5-5-5-5-5-5-5-5-5-7-7-7-7-7-7-7-7-7-7-7-7-7-7-7-7-|
A|--5-5-5-5-5-5-5-5-5-5-5-5-5-5-5-5-7-7-7-7-7-7-7-7-7-7-7-7-7-7-7-7-|
E|--3-3-3-3-3-3-3-3-3-3-3-3-3-3-3-3-5-5-5-5-5-5-5-5-5-5-5-5-5-5-5-5-|


Chorus: 


Guitar 1:

E|--------------------------------------------------------------------------|
B|--------------------------------------------------------------------------|
G|--7-7-7-7-7---------------------5-5-5-5-5-7-7-7-7-7-----------------------|
D|--7-7-7-7-7-8-8-8-8-8-5-5-5-5-5-5-5-5-5-5-7-7-7-7-7-7-7-7-7-7-5-5-5-5-5---|
A|--5-5-5-5-5-8-8-8-8-8-5-5-5-5-5-3-3-3-3-3-5-5-5-5-5-7-7-7-7-7-5-5-5-5-5---|
E|------------6-6-6-6-6-3-3-3-3-3---------------------5-5-5-5-5-3-3-3-3-3---|


Guitar 2:

E|--------------------------------------------------------------------------|
B|--------------------------------------------------------------------------|
G|--7-7-7-7-7---------------------5-5-5-5-5-7-9-10------------10------------|
D|--7-7-7-7-7-8-8-8-8-8-5-5-5-5-5-5-5-5-5-5-0-0-0-0-0-0-7-9-0-0-5-5-5-5-5---|
A|--5-5-5-5-5-8-8-8-8-8-5-5-5-5-5-3-3-3-3-3---------------0-0---5-5-5-5-5---|
E|------------6-6-6-6-6-3-3-3-3-3-------------------------------3-3-3-3-3---|


Solo:

e|------------------------------------9--10-12--10---12-12b-12-10---------|
B|--/10--10-11-10-10b----/10--10-11-10------------10-------------10--10-10|
G|--------------------9---------------------------------------------------|
D|------------------------------------------------------------------------|
A|------------------------------------------------------------------------|
E|------------------------------------------------------------------------|

e|-8-8-8--5-5-5--3-3-3----------------|
B|----------------------6-6--6-5---3-5|
G|------------------------------------|
D|------------------------------------|
A|------------------------------------|
E|------------------------------------|


Chorus:

Guitar 1:

E|--------------------------------------------------------------------------|
B|--------------------------------------------------------------------------|
G|--7-7-7-7-7---------------------5-5-5-5-5-7-7-7-7-7-----------------------|
D|--7-7-7-7-7-8-8-8-8-8-5-5-5-5-5-5-5-5-5-5-7-7-7-7-7-7-7-7-7-7-5-5-5-5-5---|
A|--5-5-5-5-5-8-8-8-8-8-5-5-5-5-5-3-3-3-3-3-5-5-5-5-5-7-7-7-7-7-5-5-5-5-5---|
E|------------6-6-6-6-6-3-3-3-3-3---------------------5-5-5-5-5-3-3-3-3-3---|


Guitar 2:

E|--------------------------------------------------------------------------|
B|--------------------------------------------------------------------------|
G|--7-7-7-7-7---------------------5-5-5-5-5-7-9-10------------10------------|
D|--7-7-7-7-7-8-8-8-8-8-5-5-5-5-5-5-5-5-5-5-0-0-0-0-0-0-7-9-0-0-5-5-5-5-5---|
A|--5-5-5-5-5-8-8-8-8-8-5-5-5-5-5-3-3-3-3-3---------------0-0---5-5-5-5-5---|
E|------------6-6-6-6-6-3-3-3-3-3-------------------------------3-3-3-3-3---|


Outro:

Guitar 1:


E|-----------------------------------------------------------------|
B|-----------------------------------------------------------------|
G|-7-9-10---------10-12-14-14-14-14--------------------------------|
D|-0-0--0-0-0-0-0-0--0--0--0--0--0---7-----7---7-----7---7---7---7-|
A|-----------------------------------0-0-0-0-0-0-0-0-0-0-0-0-0-0-0-|
E|-----------------------------------------------------------------|


E|-----------------------------------|
B|-----------------------------------|
G|-7-9-10---------10-12-14-14-14-14--|
D|-0-0--0-0-0-0-0-0--0--0--0--0--0---|
A|-----------------------------------|
E|-----------------------------------|

E|-----------------------------------------------------------------|
B|-----------------------------------------------------------------|
G|--7-7-7-7-7-7-7-7-7-7-7-7-7-7-7-7--------------------------------|
D|--7-7-7-7-7-7-7-7-7-7-7-7-7-7-7-7-7-7-7-7-7-7-7-7-7-7-7-7-7-7-7-7|
A|--5-5-5-5-5-5-5-5-5-5-5-5-5-5-5-5-7-7-7-7-7-7-7-7-7-7-7-7-7-7-7-7|
E|----------------------------------5-5-5-5-5-5-5-5-5-5-5-5-5-5-5-5|

E|----------------------------------|
B|----------------------------------|
G|--7-7-7-7-7-7-7-7-7-7-7-7-7-7-7-7-|
D|--7-7-7-7-7-7-7-7-7-7-7-7-7-7-7-7-|
A|--5-5-5-5-5-5-5-5-5-5-5-5-5-5-5-5-|
E|----------------------------------|

End On:

E|-----|
B|-----|
G|--7~-|
D|--7~-|
A|--5~-|
E|-----|




Playing order:

Intro
1st Verse
Pre-Chorus
Chorus
2nd Verse
Pre-Chorus
Chorus
Solo
Chorus
Outro

Tap to rate this tab
# A B C D E F G H I J K L M N O P Q R S T U V W X Y Z