Guitaretab - guitar tabs
Song name
# A B C D E F G H I J K L M N O P Q R S T U V W X Y Z

Backyard Babies - Minus Celsius tab

Backyard Babies - Minus Celsius
Stockholm syndrome
Tabbed by: falcken

This took quiet some time to do, but i think it's right almost all the way.
Please don't complain for mistakes. This was my first tab.

I play the first part of intro like this, it sounds better but its optional:

e|--------------------------------------------|
B|--------------------------------------------|
G|-7-9-10--10-14-14-14-14---------------------|
D|-0-0--0---0--0--0--0--0----7-7-7-7-7-7-7-7--|
A|---------------------------0-0-0-0-0-0-0-0--|
E|--------------------------------------------|

This is the right version:

e|--------------------------------------------|
B|--------------------------------------------|
G|-7-9-10--10-14-14-14-14---------------------|
D|-0-0--0---0--0--0--0--0----8-8-8-8-8-8-8-8--|
A|---------------------------0-0-0-0-0-0-0-0--|
E|--------------------------------------------|

e|------------------------|
B|------------------------|
G|-14-14-14-12-10--10-9-7-|
D|-0--0--0--0--0---0--0-0-|
A|------------------------|
E|------------------------|

e|-----------------------------------------|
B|-----------------------------------------|
G|-7-9-10--10-14-14-14-14------------------|
D|-0-0--0---0--0--0--0--0--8-8-8-8-8-8-8-8-|
A|-------------------------0-0-0-0-0-0-0-0-|
E|-----------------------------------------|

verse (dregen)
e|----------------------------------------|
B|----------------------------------------|
G|-7-9-10--10-14-14-14-14-----------------|
D|-0-0--0---0--0--0--0--0-8-8-8-8-8h10-11-|
A|------------------------0-0-0-0---------|
E|----------------------------------------|

verse (nicke)
e|-------------------------|
B|-------------------------|
G|--7-7-7-7-7--------------|
D|--7-7-7-7-7-7-7-7-7-7----|
A|--5-5-5-5-5-7-7-7-7-7----|
E|------------5-5-5-5-5----|

bridge (nicke)
e|----------------|
B|----------------|
G|-----------7~---|
D|--5~-------7~---|
A|--5~-------5~---|
E|--3~------------|
[ Tab from: http://www.guitaretab.com/b/backyard-babies/83625.html ]
bridge (dregen)
e|-----------5-------|
B|-------------6-----|
G|---------------7---|
D|--5----------------|
A|--5----------------|
E|--3----------------|

chorus
e|----------------------------------------------------------------------------
B|----------------------------------------------------------------------------
G|--7-7-7-7-7---------------------5-5-5-5-5-7-7-7-7-7-------------------------
D|--7-7-7-7-7-8-8-8-8-8-5-5-5-5-5-5-5-5-5-5-7-7-7-7-7-7-7-7-7-7-5--5--5--5-5--
A|--5-5-5-5-5-8-8-8-8-8-5-5-5-5-5-3-3-3-3-3-5-5-5-5-5-7-7-7-7-7-5--5--5--5-5--
E|------------6-6-6-6-6-3-3-3-3-3---------------------5-5-5-5-5-3--3--3--3-3--

e|-------------------------------------------------------------------------|
B|-------------------------------------------------------------------------|
G|--7-7-7-7-7---------------------5-5-5-5-5--7-9-10---5-7-8~-------------|
D|--7-7-7-7-7-8-8-8-8-8-5-5-5-5-5-5-5-5-5-5--0-0-0----0-0-0~-5--5--5--5-5--|
A|--5-5-5-5-5-8-8-8-8-8-5-5-5-5-5-3-3-3-3-3------------------5--5--5--5-5--|
E|------------6-6-6-6-6-3-3-3-3-3----------------------------3--3--3--3-3--|

Solo
e|-----------------------7-8-10--10-8----10^-10^-8-7---|
B|-8-8-9-8-8----8-8-9-8----------------8---------------|
G|------------7----------------------------------------|
D|-----------------------------------------------------|
A|-----------------------------------------------------|
E|-----------------------------------------------------|

e|-8-8-8--6-6-6------------------|
B|--------------8-8-8-6-6-6------|
G|--------------------------8-7~-|
D|-------------------------------|
A|-------------------------------|
E|-------------------------------|

Guitar 2 plays same as in the verse.This is the wrong way to play the solo according to me. 

outro

e|------------------------------|
B|------------------------------|
G|-7-9-10--14-12-10--10--10-9-7-|
D|-0-0--0---0--0--0---0---0-0-0-|
A|------------------------------|
E|------------------------------|
This part is really wrong but it's better then nothing.That's it.
Related for Minus Celsius tab
×
Minus Celsius