Song name
# A B C D E F G H I J K L M N O P Q R S T U V W X Y Z

Bad Brains - Dont Bother Me tab

This is just a tab for the chords, the rhythm is up to you to figure out. 

intro:
e|-------|
B|-------|
G|-13----|
D|-13-13-|
A|-11-13-|
E|----11-|

verse:
e|----------|
B|----------|
G|----12----|
D|-10-12-13-|
A|-10-10-13-|
E|-8-----11-|

chorus:
e|-------|
B|-------|
G|---7-5-|
D|-7-7-5-|
A|-7-5-3-|
E|-5-----|

outro:
e|----------------|
B|----------------|
G|-6-8--13\6--6-8-|
D|-6-8--13\6--6-8-|
A|-4-6--11\4--4-6-|
E|----------------|
Tap to rate this tab
 
# A B C D E F G H I J K L M N O P Q R S T U V W X Y Z