Song name
# A B C D E F G H I J K L M N O P Q R S T U V W X Y Z

Bad Brains - Stay Close To Me tab

Band:Bad Brains
Song: Stay Close to Me

tabbed by jam9383@yahoo.com

Intro

e---------------------------------------------------------------------|
B---------------------------------------------------------------------|
G--------------10--------9--------------------------------------------|
D----7---------10--------9--------------------------------------------|
A----7---------8---------7--------------------------------------------|
E----5----------------------------------------------------------------|

Verse

e---5--5--x--5---4--4--x--4--2--2--x--2---7-x-7-x-7-7-----------------|
B---5--5--x--5---5--5--x--5--3--3--x--3---9-x-9-x-9-9-----------------|
G---6--6--x--6---6--6--x--6--4--4--x--4---9-x-9-x-9-9-----------------|
D---------------------------------------------------------------------|
A---------------------------------------------------------------------|
E---------------------------------------------------------------------|

Bridge

e---------------------------------------------------------------------|
B---------------------------------------------------------------------|
G-----------------------------4-4-4-5-4-------------------------------|
D--4--4-----4--4-----4--4-----4-4-4-5-4-------------------------------|
A--4--4-----4--4-----4--4-----2-2-2-3-2-------------------------------|
E--2--2-----2--2-----2--2---------------------------------------------|

Bridge 2

e--------------7-x-7--------------------------------------------------|
B-7/8/10\8\7---9-x-9--------------------------------------------------|
G--------------9-x-9--------------------------------------------------|
D--------------9-x-9--------------------------------------------------|
A--------------7-x-7--------------------------------------------------|
E---------------------------------------------------------------------|

If any corrections/comments are needed contact me please rate
Tap to rate this tab
# A B C D E F G H I J K L M N O P Q R S T U V W X Y Z