Song name
# A B C D E F G H I J K L M N O P Q R S T U V W X Y Z

Bad Religion - Tainted Love tab

Help us improve GuitareTab! Take a short survey!
Bad Relgion-Tainted love (cover)

*INTRO*
e---------------------------------------------------------|
b---------------------------------------------------------|
g---------------------------------------------------------|
d-9-9-/----------------9-9/-------------------------------|
a-7-7-/------2-2-------7-7/------2-2-/--------------------|
E------------0-0-----------------0-0-/(pick slide)--------|
*CHORUS*
(listen to song for correct rythm)
e-----------------------------------|
b-----------------------------------|
g-----------------------------------|
d-------------3-3-3-3---------------|x2
a--2-2-2--5-5-5-5-5-5-5-7-----------|
E--0-0-0--3-3---------3-5-----------|

Sorry I didnt tab the rest


Tablature by Fr4nk3nChr1sT
Related for Tainted Love tab