Song name
# A B C D E F G H I J K L M N O P Q R S T U V W X Y Z

Bad Religion - Infected tab

Artist: BAD RELIGION
Song: Infected
Album: Stranger Than Fiction
Tuning: 1/2 Step down (EbAbDbGbBbEb)


INTRO:

Rhythm Guitar: (Palm Muted) Play twice

Eb|-----------------|-----------------|-----------------|-----------------|
Bb|-----------------|-----------------|-----------------|-----------------|
Gb|-2-2-2---------4-|-5-5-5-6-7-7-7-5-|-2-2-2---------4-|-5-5-5-6-7-7-7-5-|
Db|-2-2-2-2-3-3-3-4-|-5-5-5-6-7-7-7-5-|-2-2-2-2-3-3-3-4-|-5-5-5-6-7-7-7-5-|
Ab|-0-0-0-2-3-3-3-2-|-3-3-3-4-5-5-5-3-|-0-0-0-2-3-3-3-2-|-3-3-3-4-5-5-5-3-|
Eb|-------0-1-1-1---|-----------------|-------0-1-1-1---|-----------------|

Eb|-----------------|-----------------|-----------------|-----------------|
Bb|-----------------|-----------------|-----------------|-----------------|
Gb|-2-2-2---------4-|-5-5-5-6-7-7-7-5-|-2-2-2---------4-|-5-5-5-5---------|
Db|-2-2-2-2-3-3-3-4-|-5-5-5-6-7-7-7-5-|-2-2-2-2-3-3-3-4-|-5-5-5-5-5-5-5-5-|
Ab|-0-0-0-2-3-3-3-2-|-3-3-3-4-5-5-5-3-|-0-0-0-2-3-3-3-2-|-3-3-3-3-5-5-5-5-|
Eb|-------0-1-1-1---|-----------------|-------0-1-1-1---|---------3-3-3-3-|

Lead Guitar:

Eb|-----------------------------------|-----------------------------------|
Bb|-----------------------------------|-----------------------------------|
Gb|--12~------------------------------|-------------------16--14--14--15--|
Db|-----------------------------------|-----------------------------------|
Ab|--10~------------------------------|-------------------14--12--12--13--|
Eb|-----------------------------------|-----------------------------------|

Eb|-----------------------------------|-----------------------------------|
Bb|-----------------------------------|-----------------------------------|
Gb|--12~------------------------------|-------------------16--14--14--15--|
Db|-----------------------------------|-----------------------------------|
Ab|--10~------------------------------|-------------------14--12--12--13--|
Eb|-----------------------------------|-----------------------------------|

Eb|-----------------------------------|-----------------------------------|
Bb|-----------------------------------|-----------------------------------|
Gb|--13------13------13--13--13-------|--13------13------13--13--13-------|
Db|-----------------------------------|-----------------------------------|
Ab|--11------11------11--11--11-------|--11------11------11--11--11-------|
Eb|-----------------------------------|-----------------------------------|

Eb|-----------------------------------|-----------------------------------|
Bb|-----------------------------------|-----------------------------------|
Gb|--13-13-13-13-13--13-13-13-13-13---|--13-13-13-13-13--13-13-13-13-13---|
Db|-----------------------------------|-----------------------------------|
Ab|--11-11-11-11-11--11-11-11-11-11---|--11-11-11-11-11--11-11-11-11-11---|
Eb|-----------------------------------|-----------------------------------|

Eb|-----------------------------------|-----------------------------------|
Bb|-----------------------------------|-----------------------------------|
Gb|--12~------------------------------|-------------------16--14--14--15--|
Db|-----------------------------------|-----------------------------------|
Ab|--10~------------------------------|-------------------14--12--12--13--|
Eb|-----------------------------------|-----------------------------------|

Eb|-----------------------------------|-----------------------------------|
Bb|-----------------------------------|-----------------------------------|
Gb|--12~------------------------------|-------------------16--14--14--15--|
Db|-----------------------------------|-----------------------------------|
Ab|--10~------------------------------|-------------------14--12--12--13--|
Eb|-----------------------------------|-----------------------------------|

Eb|-----------------------------------|-----------------------------------|
Bb|-----------------------------------|-----------------------------------|
Gb|--13------13------13--13--13-------|--13------13------13--13--13-------|
Db|-----------------------------------|-----------------------------------|
Ab|--11------11------11--11--11-------|--11------11------11--11--11-------|
Eb|-----------------------------------|-----------------------------------|

Eb|-----------------------------------|-----------------------------------|
Bb|-----------------------------------|-----------------------------------|
Gb|--15-15-15-15-15--15-15-15-15-15---|--15-15-15-15-15--15-15-15-15-15-13|
Db|-----------------------------------|-----------------------------------|
Ab|--13-13-13-13-13--13-13-13-13-13---|--13-13-13-13-13--13-13-13-13-13-11|
Eb|-----------------------------------|-----------------------------------|


VERSE:

Eb|-----------------|-----------------|-----------------|-----------------|
Bb|-----------------|-----------------|-----------------|-----------------|
Gb|-2-2-2---------4-|-5-5-5-6-7-7-7-5-|-2-2-2---------4-|-5-5-5-6-7-7-7-5-|
Db|-2-2-2-2-3-3-3-4-|-5-5-5-6-7-7-7-5-|-2-2-2-2-3-3-3-4-|-5-5-5-6-7-7-7-5-|
Ab|-0-0-0-2-3-3-3-2-|-3-3-3-4-5-5-5-3-|-0-0-0-2-3-3-3-2-|-3-3-3-4-5-5-5-3-|
Eb|-------0-1-1-1---|-----------------|-------0-1-1-1---|-----------------|

Eb|-----------------|-----------------|-----------------|-----------------|
Bb|-----------------|-----------------|-----------------|-----------------|
Gb|-2-2-2---------4-|-5-5-5-6-7-7-7-5-|-2-2-2---------4-|-5-5-5-5---------|
Db|-2-2-2-2-3-3-3-4-|-5-5-5-6-7-7-7-5-|-2-2-2-2-3-3-3-4-|-5-5-5-5-5-5-5-5-|
Ab|-0-0-0-2-3-3-3-2-|-3-3-3-4-5-5-5-3-|-0-0-0-2-3-3-3-2-|-3-3-3-3-5-5-5-5-|
Eb|-------0-1-1-1---|-----------------|-------0-1-1-1---|---------3-3-3-3-|


PRE-CHORUS:

Eb|-----------------|-----------------|---------1-1-1-0-|---------1-1-1-0-|
Bb|-----------------|-----------------|---------1-1-1-0-|---------1-1-1-0-|
Gb|-----------------|-----------------|---------2-2-2-1-|---------2-2-2-1-|
Db|---7-777-8---8---|---3-333-5---5---|-7-7-7-5-3-3-3-2-|---7-7-5-3-3-3-2-|
Ab|---7-777-8---8---|---3-333-5---5---|-7-7-7-5-3-3-3-2-|---7-7-5-3-3-3-2-|
Eb|---5-555-6---6---|---1-111-3---3---|-5-5-5-3-1-1-1-0-|---5-5-3-1-1-1-0-|

                                                P.M...
Eb|-----------------|-----------------|-----------------|
Bb|-----------------|-----------------|-----------------|
Gb|-----------------|-----------------|-----------------|
Db|---7-777-8---8---|---3-333-4---4---|-4---4---4-4-4---|
Ab|---7-777-8---8---|---3-333-4---4---|-4---4---4-4-4---|
Eb|---5-555-6---6---|---1-111-2---2---|-2---2---2-2-2---|


CHORUS:

Eb|-----------------|-----------------|-----------------|-----------------|
Bb|-----------------|-----------------|-----------------|-----------------|
Gb|-2-2-2-2---------|-5-5-5-5---------|-----------------|-----------------|
Db|-2-2-2-2-3-3-3-3-|-5-5-5-5-5-5-5-5-|---7-777-8---8---|---3-333-5---5---|
Ab|-0-0-0-0-3-3-3-3-|-3-3-3-3-5-5-5-5-|---7-777-8---8---|---3-333-5---5---|
Eb|---------1-1-1-1-|---------3-3-3-3-|---5-555-6---6---|---1-111-3---3---|

Eb|-----------------|-----------------|-----------------|-----------------|
Bb|-----------------|-----------------|-----------------|-----------------|
Gb|-2-2-2-2---------|-5-5-5-5---------|-----------------|-----------------|
Db|-2-2-2-2-3-3-3-3-|-5-5-5-5-5-5-5-5-|---7-777-8---8---|---3-333-5---5---|
Ab|-0-0-0-0-3-3-3-3-|-3-3-3-3-5-5-5-5-|---7-777-8---8---|---3-333-5---5---|
Eb|---------1-1-1-1-|---------3-3-3-3-|---5-555-6---6---|---1-111-3---3---|


CHORUS END 1:

Eb|-----------------|-----------------|
Bb|-----------------|-----------------|
Gb|-----------------|-----------------|
Db|-7-7-7-7-7-7-7-7-|-8-8-8-8-8-------|
Ab|-7-7-7-7-7-7-7-7-|-8-8-8-8-8-------|
Eb|-5-5-5-5-5-5-5-5-|-6-6-6-6-6-------|


Repeat: VERSE, PRE-CHORUS, CHORUS


CHORUS END 2:

Eb|-----------------|-----------------|
Bb|-----------------|-----------------|
Gb|-----------------|-----------------|
Db|-7-7-7-7-7-7-7-7-|-7-7-7-7-7-7-7-7-|
Ab|-7-7-7-7-7-7-7-7-|-7-7-7-7-7-7-7-7-|
Eb|-5-5-5-5-5-5-5-5-|-5-5-5-5-5-5-5-5-|


BRIDGE:

Eb|-----------------|-----------------|-----------------|-----------------|
Bb|-----------------|-----------------|-----------------|-----------------|
Gb|-----------------|-----------------|-----------------|-----------------|
Db|-----------------|-----------------|-----------------|-----------------|
Ab|-2-2-2-0-----0---|-2-2-2-0-----0---|-2-2-2-0-----0---|-2-2-2-2-2---0---|
Eb|---------2-------|---------2-------|---------2-------|-----------------|

Eb|-----------------|-----------------|-----------------|-----------------|
Bb|-----------------|-----------------|-----------------|-----------------|
Gb|-----------------|-----------------|-----------------|-----------------|
Db|-----------------|-----------------|-----------------|-7-7-7-7-7-7-7-7-|
Ab|-----------------|-----------------|-5-5-5-5-5-5-5-5-|-7-7-7-7-7-7-7-7-|
Eb|-2-2-2-0-3---2---|-2-2-2-0-3---2---|-3-3-3-3-3-3-3-3-|-5-5-5-5-5-5-5-5-|


SOLO:

Eb|-----------------------------------|-----------------------------------|
Bb|-----------------------------------|-----------------------------------|
Gb|--16~~------------16~~-------------|--16--14------------14161416--14---|
Db|-----------------------------------|------------------16---------------|
Ab|-----------------------------------|-----------------------------------|
Eb|-----------------------------------|-----------------------------------|

Eb|-----------------------------------|----------14-----------------------|
Bb|-----------------------------------|--------17--17----17~~-------------|
Gb|----141614-------------------------|----1416------1614-----------------|
Db|--16-------------------------------|--16-------------------------------|
Ab|----------14~~---------------------|-----------------------------------|
Eb|-----------------------------------|-----------------------------------|

Eb|--13\\12---------------------------|-----------------------------------|
Bb|----------15-----------------------|-----------------------------------|
Gb|----------------------1416---------|-----------------------------------|
Db|------------------1215----16-------|-----------------------------------|
Ab|-----------------------------------|---------------------9----10---9---|
Eb|-----------------------------------|-----------------9-----------------|


Play under solo:

Eb|-----------------|-----------------|
Bb|-----------------|-----------------|
Gb|-4-4-4-4-5-5-5-5-|-----------------|
Db|-4-4-4-4-5-5-5-5-|-5-5-5-5-7-7-7-7-|
Ab|-2-2-2-2-3-3-3-3-|-5-5-5-5-7-7-7-7-|
Eb|-----------------|-3-3-3-3-5-5-5-5-|


INTERLUDE:

Same riff like under solo (5x)


OUTRO:

Same riff like under solo (10x)

Ends on

Eb|-7-|
Bb|-7-|
Gb|-8-|
Db|-9-|
Ab|-9-|
Eb|-7-|
Tap to rate this tab
 
# A B C D E F G H I J K L M N O P Q R S T U V W X Y Z