Song name
# A B C D E F G H I J K L M N O P Q R S T U V W X Y Z

Bamboo - Hallelujah tab

Song Title: Hallelujah
Song Artist: Bamboo

Tabber: Dave UbaŅa
Email Address: hdu_dave1231@yahoo.com
Facebook Account Link : http://www.facebook.com/profile.php?id=1410800710
Location: Daet, Camarines Norte Bicol Region
School: La Consolacion College of Daet - 4th year High School pa lng po..

----------------------------------------------------------------------------

This must be the best Bamboo's Hallelujah tab you can see.. please rate

Intro: whether of this 2.. choose where you feel comfortable ^^
e|------------------------|          e|------3-----------------|
B|------8-----------------|          B|----1-------------------|
G|----5-------------------|    or    G|--2---------------------|
D|--7---------------------|          D|------------------------|
A|------------------------|          A|------------------------|
E|------------------------|x4        E|------------------------|x4

Then: Do it Fast XD
e|----------------------------------------------|
B|----------------------------------------------|
G|----------------------------------------------|  x2
D|----------------------------------------------|
A|-----0h888-8h10p8-7s5-------------------------|
E|-555------------------88-8h10-10-7h8p7-3------|


Verse1: u can use WAH effects if you can, or just palm mute it
e|-------------------|                |-------------------|
B|-------------------|                |-------------------|
G|-------------------| or just simply |-----10------------|
D|-7---15---10---5---|                |-7---10---10---5---|
A|-7---15---10---5---|                |-7---8----10---5---|
E|-5---13---8----3---|x4              |-5--------8----3---|x4

Then Repeat Intro but only 2 times
Verse2:Same as Verse1

Refrain:
e|---------------------|    |---------------------|
B|---------------------|    |---------------------|
G|-----5---------------| or |-----5-------10---12-|
D|-3---5---5---15---17-|    |-3---5---5---10---12-|
A|-3---3---5---13---17-|    |-3---3---5---8----10-|
E|-1-------3---13---15-|    |-1-------3-----------|

Chorus:
e|--------------------|    Then  e|-------|
B|--------------------|          B|-------|
G|---------5----------|          G|-------|
D|-7---3---5---5---15-|          D|-7---3-|
A|-7---3---3---5---15-|          A|-7---3-|
E|-5---1-------3---13-|x2        E|-5---1-|


Rap Part: Sorry ala eh.. d kya nung drummer ko ung drummings dun eh..
          mahirap daw.. pero mahirap naman tlaga..  kya d na ako nag effort
          na tipain sya..

          Pero nakakahiya naman senyo.. Hehehe!!


e2 ung bago mag rap..:
e|------------------------|
B|---------------5-6-5----| kung mali.. sory man!! haha!!
G|---------5-7-5-------7--| on the spot ko lng kasi yan tinipa..
D|-5h7-5-7----------------| okay?.. hehe!!
A|------------------------|
E|------------------------|

Verse3: Same as Verse1
Then Refrain and Chorus

Solo: WAH Effects

e|------------------------------------------------------------------|
B|-------8--5------------8--5------88-55----------------------------|
G|-----5-----7-5-------5------7----------77-55----------------------|
D|-5h7-------------5h7-------------------------7-5-7---5h7-5h7-5h7--|
A|------------------------------------------------------------------|
E|------------------------------------------------------------------|

e|-----------------------------------17-17-----17-17-------17-------| 15s17-15s17-15s7-15s17
B|-5-8-10s12-10-12-12s13-15-13-15s17-----17-17-------17-17---17-----|
G|------------------------------------------------------------------|
D|------------------------------------------------------------------|
A|------------------------------------------------------------------|
E|------------------------------------------------------------------|

e2 ung fast part.. u can try this:
e|-15s17-15s17-15s7-15s17-|
B|------------------------|
G|------------------------|
D|------------------------|
A|------------------------|
E|------------------------|

or this tapping version: kelangan sobrang bilis ne2.. [R] means tap by right finger
e|-15s17-----15s17-----15s7-----15s17-----15s17-----15s17-----15s7-----15s17|
B|------17[R]-----17[R]----17[R]-----17[R]-----17[R]-----17[R]----17[R]-----|
G|--------------------------------------------------------------------------|
D|--------------------------------------------------------------------------|
A|--------------------------------------------------------------------------|
E|--------------------------------------------------------------------------|

Then Chorus Chords: Timing dapat dun sa delay.. The Finish it with
The Lower F
e|-------|
B|-------|
G|-------| then let it ring..
D|---3---|
A|---3---|
E|---1---|


Hay ang Pagod pala neto!! hahaha!! unang tab ko po.. rate po plss.. Salamat!!
5 stars na para masaya.. haha!!

Hi nga pla dun sa mga banda ko.. (Stars for Favors, Ungas, [The Supots - anjan ang 
pinakamagagaling])
Bandmates ko dun sa tatlo na bandang un.. haha!!.. Sikat na kau..

Carl Ylagan - [The Supots] Drummer dun sa apat na banda
Gino Gaulit - [The Supots] Bahista dun sa apat na banda maliban lng dun sa Stars for 
pansosyal daw un eh..
Lemuel Tam - Rhythm Guitar sa Ungas band
Ancie Papares - Vocals sa Ungas band
Jesse Menribe - Vocals sa Ungas band
Matt Boller - Vocals/Bass sa Stars for Favors
Joanna Carranceja - Bass/Vocals guitar sa Stars for Favors
Manny Idioma - Rhythm sa Stars for Favors

At Syempre dapat ako din!! haha!!
DAVE UBAŅA - lahat pwede kong kapitan.. hahaha!! wag GM!! tae!!
           - pinaka magaling sa electrik guitar.. d2 lng smin sa Daet
             at sa mga ka age ko lng.. hehehe!!
           - at dapat wala nang mag kontra.. at mag rate n lng ng 5stars..
             kase.. 99% sure ako na tama yan..
Tap to rate this tab
 
# A B C D E F G H I J K L M N O P Q R S T U V W X Y Z