Song name
# A B C D E F G H I J K L M N O P Q R S T U V W X Y Z

Bangles - Following tab

Highlighted       Show chord diagrams
Chords for the Bangles song "Following"

Standard tuning. Capo the second fret.
Listen to the song for strumming patterns. Most of the song is just hitting the root 
and arpeggiating the chords afterwards.

Intro and Chorus chords  REMEMBER TO USE A CAPO ON THE SECOND FRET.


    F#m   G#m   A     D   Bm11  C#s2   C#m?

E|--0--|--2--|--3--|-----|-----|--2--|--0--|-----|
B|--0--|--2--|--3--|--5--|--5--|--2--|--0--|-----|
G|--0--|--2--|--4--|--5--|--5--|--4--|--4--|-----|
D|--2--|--4--|--5--|--5--|--5--|--4--|--4--|-----|
A|--2--|--4--|--5--|--3--|-----|--2--|--2--|-----|
E|--0--|--2--|--3--|-----|--5--|-----|-----|-----|


verse chords.

   F#m   Bs2  F#m/B  E11   Es4/A

E|--0--|--0--|--0--|--2--|--3--|
B|--0--|--0--|--0--|--3--|--3--|
G|--0--|--2--|--0--|--2--|--2--|
D|--2--|--2--|--2--|--0--|-----|
A|--2--|--0--|--0--|-----|-----|
E|--0--|-----|-----|-----|-----|


Fill #1

E|------------------------0--|
B|------------------------0--|
G|------------------0-----0--|
D|----------0--0h2--------2--|
A|--0--0h2----------------2--|
E|---------------------0-----|


Fill#2


E|---------------0--|
B|--5--5\3p0-----0--|
G|--4--4\2p0-----0--|
D|---------------2--|
A|---------------2--|
E|------------0-----|

Fill#3 (I hear a variation or soft version of this fill but Im not sure. Sometimes I use 
sometimes not. Just feel it.)

E|---------------0--|
B|--5--5\3p0-----0--|
G|--4--4\2p0-----2--|
D|---------------2--|
A|------------0-----|
E|------------------|


Here are the open tuning (no capo) chord names if its easier on the brain for you to 
this way with the capo  :)

  Em    F#m/C#  G     C    Am7   
  Bs4

E|--0--|--2--|--3--|-----|-----|--2--|--0--|-----|
B|--0--|--2--|--3--|--5--|--5--|--2--|--0--|-----|
G|--0--|--2--|--4--|--5--|--5--|--4--|--4--|-----|
D|--2--|--4--|--5--|--5--|--5--|--4--|--4--|-----|
A|--2--|--4--|--5--|--3--|-----|--2--|--2--|-----|
E|--0--|--2--|--3--|-----|--5--|-----|-----|-----|


verse chords.

   Em    As2   Em/A   D    Ds4

E|--0--|--0--|--0--|--2--|--3--|
B|--0--|--0--|--0--|--3--|--3--|
G|--0--|--2--|--0--|--2--|--2--|
D|--2--|--2--|--2--|--0--|-----|
A|--2--|--0--|--0--|-----|-----|
E|--0--|-----|-----|-----|-----|


Enjoy!
TuneSlinger.
Tap to rate this tab
 
# A B C D E F G H I J K L M N O P Q R S T U V W X Y Z