Song name
# A B C D E F G H I J K L M N O P Q R S T U V W X Y Z

Bangles - Hazy Shade Of Winter tab

-------------------------------------------------------------------------------
	Hazy Shade of Winter - Bangles
-------------------------------------------------------------------------------
Tabbed by: dudehm13	
Email: dudehm13@hotmail.com

any questions or comments, email me! have fun with this!

e|------------------------------------------------------------------------|
B|-----------------------------------1--------------------------4---2-----|
G|----------------------1----3------------3---1---------------------------|
D|-----------3---3-----------------------------------------3------------3-|
A|----------------------------------------------------1-------------------|
E|------------------------------------------------------------------------|

e|------------------------------------------------------------------------|
B|-------------------------------------------------------1------1---------|
G|------------------------1-----4----3-----1---------0------3-------------|
D|-----------------3------------------------------------------------------|
A|-----4-----4----------------------------------3-------------------------|
E|------------------------------------------------------------------------|
Tap to rate this tab
 
# A B C D E F G H I J K L M N O P Q R S T U V W X Y Z