Song name
# A B C D E F G H I J K L M N O P Q R S T U V W X Y Z

Bangles - Restless tab

Highlighted       Show chord diagrams
RESTLESS (By Vladimir C.F.)
---------------------------

(V. Peterson/S. Hoffs)
Vicki 

INTRO DRUMS X 1 TIME

   Cm                      Cm                  F                  G
E|-----------------------|------------------|-------------------|------------||
B|----10b11r10--8--------|------10b11r10----|--10--10--10p8--10/|12-----12~--||
G|----10b11r10--8--------|------10b11r10----|--10--10--10p8--10/|12--12~-----||
D|-----------------10-8--|--10--------------|-------------------|------------||
A|-----------------------|------------------|-------------------|------------||
E|-----------------------|------------------|-------------------|------------||

Cm                   Bb                   Cm       F7   Cm   F7
Saw your head turned a bit too far to the right now
Cm               Bb                    G
Saw the eye go a little spark when she walks by now
F7
But if you wanna love
F7
You wanna love another girl
F7                  G7
I'll leave it up to you
    Cm            F7   Cm   F7
But I won't be tested
(You feel restless now)
      Cm           F7   G7
While you feel restless (restless)

Cm                Bb                  Cm     F7   Cm   F7
Now I'm wondering every time that you hold me
Cm                      Bb                G
Well, should I question anything you have told me
F7
But if you wanna love
F7
You wanna love another girl
F7                  G7
I'll leave it up to you
    Cm            F7   Cm   F7
But I won't be tested
(You feel restless now)
      Cm          F7     G7
While you feel restless (restless) yeah


SOLO   |Cm |Cm |Cm |Cm |Cm |Cm |Cm |G7 |G7 |
       |Cm |Cm |Cm |Cm |Cm |Cm |Cm |G7 |

Cm         Bb                               
I remember when you and I were a nation
Cm                Bb               G                                     
I could trust you in any dark situation
F7
But if you wanna love
F7
You wanna love another girl
F7                  G7
I'll leave it up to you
    Cm            F7   Cm   F7
But I won't be tested
(You feel restless now)
      Cm          F7     G7
While you feel restless (restless) 


END |Cm |Bb |F |G |Cm |Bb |F |G |Cm F7|Cm F7|Cm F7|Cm F7|


The hottest songs from The Bangles


CHORDS

   F   G   Bb  Cm   F7   G7
E|-1-|-3-|-6-|-8--|-8--|-10-|
B|-1-|-3-|-6-|-8--|-10-|-12-|
G|-2-|-4-|-7-|-8--|-8--|-10-|
D|-3-|-5-|-8-|-10-|-10-|-12-|
A|-3-|-5-|-8-|-10-|-8--|-10-|
E|-1-|-3-|-6-|-8--|-XX-|-XX-|


Tab submit by Vladimir(vlad2619@hotmail.com).
Tap to rate this tab
# A B C D E F G H I J K L M N O P Q R S T U V W X Y Z