Song name
# A B C D E F G H I J K L M N O P Q R S T U V W X Y Z

Baroness - Rays On Pinion tab

I haven't seen any of these so far so... yeah. I'm just gonna do the last part of the 
and yeah... This is only my ninth month playing guitar, so I'm sorry if it sounds awful.

50s-?m??s
D|---8------8---------6------6---------3------3s/6---3------3s/6-|
A|------8------8s\6------6------6s\3------3-3-3s/6------3-3-3s/6-|
F|---------------------------------------------------------------|
C|---------------------------------------------------------------|
G|---------------------------------------------------------------|
C|---------------------------------------------------------------|

D|---8------8---------6------6---------3----------3-3s/5s\3------|
A|------8------8s\6------6------6s\3------3-3-3-3-3-3s/5s\3------|
F|---------------------------------------------------------------|
C|---------------------------------------------------------------|
G|---------------------------------------------------------------|
C|---------------------------------------------------------------|
Tap to rate this tab
 
# A B C D E F G H I J K L M N O P Q R S T U V W X Y Z