Song name
# A B C D E F G H I J K L M N O P Q R S T U V W X Y Z

Bastille - Flaws tab

-------------------------------------------------------------------------------
                             Flaws - Bastille
-------------------------------------------------------------------------------
Tabbed by:J Gloz

Tuning: Standard

Intro riff, second time round add the last two notes at the end.

e|----15-15-15--12-12----------------------------|----------------------------|
B|-------------------15-15-12-12-----------------|----------------------------|
G|-------------------------------12-12-9-9-9-9-9-|-------12-12-12-12-12-------|
D|-----------------------------------------------|--12-12---------------------|
A|-----------------------------------------------|----------------------------|
E|-----------------------------------------------|----------------------------|
Tap to rate this tab
 
# A B C D E F G H I J K L M N O P Q R S T U V W X Y Z