Song name
# A B C D E F G H I J K L M N O P Q R S T U V W X Y Z

Bastille - Flaws tab

-------------------------------------------------------------------------------
                             Flaws - Bastille 
-------------------------------------------------------------------------------
Tabbed by: Neil Wicker
E-mail: wicker101@hotmail.co.uk

Tuning: Standard

played on a classical guitar

I love this acoustic version so I thought I'd tab it out, you can watch it here - 
http://www.youtube.com/watch?v=q3EvXTTBaxQ

This is picked very quickly in a sweeping motion and the G and B strings are 
picked much softer than the bass notes.


Intro and Verse:

   C
e|--------------------------------------|--------------------------------------|
B|--------1--------1--------1--------1--|--------1--------1--------1--------1--|
G|-----0--------0--------0--------0-----|-----0--------0--------0--------0-----|
D|-----------2-----------------2--------|-----------2-----------------2--------|
A|--3-----------------3-----------------|--3-----------------3-----------------|
E|--------------------------------------|--------------------------------------|
 
    G                                   C
e|--------------------------------------|-------------------|------------------|
B|--------0--------0--------0--------0--|--------1--------1-|------1--------1--|
G|-----0--------0--------0--------0-----|-----0--------0----|---0--------0-----|
D|--------------------0-----------------|-----------2-------|---------2--------|
A|-----------2-----------------2--------|--3----------------|3-----------------|
E|--3-----------------------------------|-------------------|------------------|

sometimes the last half bar is played, sometimes it isn't. Watch the video to see. 

Pre-Chorus:

   Em                                   C
e|--------------------------------------|--------------------------------------|
B|--------0--------0--------0--------0--|--------1--------1--------1--------1--|
G|-----0--------0--------0--------0-----|-----0--------0--------0--------0-----|
D|--------------------------------------|-----------2-----------------2--------|
A|-----------2-----------------2--------|--3-----------------3-----------------|
E|--0-----------------0-----------------|--------------------------------------|

    G                                   D
e|--------------------------------------|--------------------------------------|
B|--------0--------0--------0--------0--|--------3--------3--------3--------3--|
G|-----0--------0--------0--------0-----|-----2--------2--------2--------2-----|
D|--------------------0-----------------|-----------0-----------------0--------|
A|-----------2-----------------2--------|--0-----------------0-----------------|
E|--3-----------------------------------|--------------------------------------|

Chorus

    G                                   C
e|--------------------------------------|--------------------------------------|
B|--------0--------0--------0--------0--|--------1--------1--------1--------1--|
G|-----0--------0--------0--------0-----|-----0--------0--------0--------0-----|
D|--------------------0-----------------|-----------2-----------------2--------|
A|-----------2-----------------2--------|--3-----------------3-----------------|
E|--3-----------------------------------|--------------------------------------|

    D                                     Em
e|--------------------------------------|--------------------------------------|
B|--------3--------3--------3--------3--|--------3--------3--------3--------3--|
G|-----2--------2--------2--------2-----|-----0--------0--------0--------0-----|
D|-----------0-----------------0--------|--------------------------------------|
A|--0-----------------0-----------------|--2--------2--------------------------|
E|--------------------------------------|--------------------2--------2--------|




    G                                   C
e|--------------------------------------|--------------------------------------|
B|--------0--------0--------0--------0--|--------1--------1--------1--------1--|
G|-----0--------0--------0--------0-----|-----0--------0--------0--------0-----|
D|--------------------0-----------------|-----------2-----------------2--------|
A|-----------2-----------------2--------|--3-----------------3-----------------|
E|--3-----------------------------------|--------------------------------------|
   D                                       G
e|--------------------------------------|--------------------------------------|
B|--------3--------3--------3--------3--|--3--3--3--3------------------------|
G|-----2--------2--------2--------2-----|--0--0--0--0----------------------------|
D|-----------0-----------------0--------|--------------------------------------|
A|--0-----------------0-----------------|--------------------------------------|
E|--------------------------------------|--3--3--3--3---------------------------|

chorus part 2:

   C                                    G
e|--------------------------------------|--------------------------------------|
B|--------1--------1--------1--------1--|--------0--------0--------0--------0--|
G|-----0--------0--------0--------0-----|-----0--------0--------0--------0-----|
D|-----------2-----------------2--------|--------------------0-----------------|
A|--3-----------------3-----------------|-----------2-----------------2--------|
E|--------------------------------------|--3-----------------------------------|

   D                                       
e|--------------------------------------|--------------------------------------|
B|--------3--------3--------3--------3--|--------3--------3--------3--------3--|
G|-----2--------2--------2--------2-----|-----2--------2--------2--------2-----|
D|-----------0-----------------0--------|-----------0-----------------0--------|
A|--0-----------------0-----------------|--0-----------------0-----------------|
E|--------------------------------------|--------------------------------------|

Bridge:

   C
e|--------------------------------------|--------------------------------------|
B|--------1--------1--------1--------1--|--------1--------1--------1--------1--|
G|-----0--------0--------0--------0-----|-----0--------0--------0--------0-----|
D|-----------2-----------------2--------|-----------2-----------------2--------|
A|--3-----------------3-----------------|--3-----------------3-----------------|
E|--------------------------------------|--------------------------------------|

e|--------------------|
B|--------1--------1--|
G|-----0--------0-----|
D|-----------2--------|
A|--3-----------------|
E|--------------------|

   G
e|--------------------------------------|--------------------------------------|
B|--------0--------0--------0--------0--|--------0--------0--------0--------0--|
G|-----0--------0--------0--------0-----|-----0--------0--------0--------0-----|
D|--------------------0-----------------|--------------------0-----------------|
A|-----------2-----------------2--------|-----------2-----------------2--------|
E|--3-----------------------------------|--3-----------------------------------|

after last repeat bridge repeat:

e|--------------0h3p3-----|
B|--------2------------2--|
G|-----3-----3------------|
D|--0---------------------|
A|------------------------|
E|------------------------|

Song structure

intro x2
verse x4
pre chorus x2
chorus
chorus part 2 x2 
verse x2
pre chorus x2
chorus
chorus part 2 x2
bridge x4
chorus 
chorus part 2 x4
verse x2


************************************

| /   slide up
| \   slide down
| h   hammer-on
| p   pull-off
| ~   vibrato
| +   harmonic
| x   Mute note
| b   Bend
| pb  Pre-bend
| br  Bend release
| pbr Pre-bend release
| brb Bend release bend

************************************
Tap to rate this tab
# A B C D E F G H I J K L M N O P Q R S T U V W X Y Z