Guitaretab - guitar tabs
Song name
# A B C D E F G H I J K L M N O P Q R S T U V W X Y Z

Battisti Lucio - Emozioni tab

Title-> Emozioni (intro part)
Artist-> Lucio Battisti
Tabbed by-> Marco Vinella (mark8er)


INTRO
[ Tab from: http://www.guitaretab.com/b/battisti-lucio/934.html ]
---0--2/3-2-0---------------------------- |
--------------3------0--------0--------0- |
--------------------0--------0--------0-- |
-------------------0--------0--------0--- | <- 2 Times
----------------------------------------- |
-----------------3--------2--------0----- |

----------------3---7-----2--------------|
---------------3-------------------------|
-----------------------------------------|
-----------------------------------------|
-----------------------------------------|
-0--2--0--2h3----------------------------|

That's all!
It sounds very nice, I love it...

For any question or rewiew please e-mail me:
sk8erboi@tiscali.it
Related for Emozioni tab
Emozioni chords by Battisti Lucio