Song name
# A B C D E F G H I J K L M N O P Q R S T U V W X Y Z

Bayside - Carry On tab

Song: Carry on
Band: Bayside
This is an awesome song by them and there werent any good tabs out. This is my first tab 
im not sure if its all right but whatever.

Intro (X2)
E----------------------------------------------------------------------------|
B----------------------------------------------------------------------------|
G-5-55-55-55-5-5-8-88-88-88-8-8-10-1212-10-7x-10x12121212--------------------|
D-5-55-55-55-5-5-8-88-88-88-8-8-xx-xxxx-xx-7x-xxxxxxxxxxx--------------------|
A-3-33-33-33-3-3-6-66-66-66-6-6-88-1010-88-5x-8xx10101010--------------------|
D----------------------------------------------------------------------------|
                                         trembolo
Intro \Jack’s part (X2)                  \/\/\/\/\/
E------------------------------------------------------------------------|
B------------------------------------------------------------------------|
G----------------------------8-10-8--------------------------------------|
D----------------------------------------1313131212----------------------|
A------------------------------------------------------------------------|
D------------------------------------------------------------------------|
                                                           ………………

Jack or anthony plays it with an echo those are just the chords
Verse
E-----------------------|
B-----------------------|
G ---7------------------|
D-10-7- 7 8-10-8--------|
A-10-5- 7-8-10-8--------|
D-10--- 7-8-10-8--------|

E----------|
B----------|
G-66666
D-66666
A-44444
D--------

Pre chorus (x2)

E-------------------------------------------------------|
B-------------------------------------------------------|
G-------------------------------------------------------|
D-444444444-7777-9999-000000000000000-------------------|
A-444444444-7777-9999-000000000000000-------------------|
D-444444444-7777-9999-000000000000000-------------------|

E--------|
B--------|
G--------|
D-xxxx
A-xxxxx
D-xxxxx

Chorus
E---------------------------------------------------------|
B---------------------------------------------------------|
G----------77777777-55555555-4444--6666-------------------|
D-88888888-77777777-55555555-4444-6666--------------------|
A-88888888-55555555-33333333-2222-4444--------------------|
D-88888888------------------------------------------------| (x2)

E--------------------------------------------------------|
B--------------------------------------------------------|
G--------------------------------------------------------|
D-3333333333-5555555555-7777777777777--------------------|
A-3333333333-5555555555-7777777777777--------------------|
D-3333333333-5555555555-7777777777777--------------------|

Jacks part: (x2)
E-------------------------------------------------------------|
B-------------------------------------------------------------|
G----------------------------10-8-10-11-10-8-7h8--------------|
D-------------------------------------------------------------|
A-------------------------------------------------------------|
D-------------------------------------------------------------|

Intro (X2)
E----------------------------------------------------------------------------|
B----------------------------------------------------------------------------|
G-5-55-55-55-5-5-8-88-88-88-8-8-10-1212-10-7x-10x12121212--------------------|
D-5-55-55-55-5-5-8-88-88-88-8-8-xx-xxxx-xx-7x-xxxxxxxxxxx--------------------|
A-3-33-33-33-3-3-6-66-66-66-6-6-88-1010-88-5x-8xx10101010--------------------|
D----------------------------------------------------------------------------|
                                         trembolo
Intro \Jack’s part (X2)                  \/\/\/\/
E------------------------------------------------------------------------|
B------------------------------------------------------------------------|
G----------------------------8-10-8--------------------------------------|
D----------------------------------------1313131212----------------------|
A------------------------------------------------------------------------|
D------------------------------------------------------------------------|
                                         ..........

Verse 2
E-------------------------------------------------------------------|
B-------------------------------------------------------------------|
G-------------------------------------------------------------------|
D-888-xx-8-8888-xx-8-8555-xx-5-5-555-xx-5666-xx---------------------|
A-888-xx-8-8888-xx-8-8555-xx-5-5-555-xx-5666-xx---------------------|
D -888-xx-8-8888-xx-8-8555-xx-5-5-555-xx-5666-xx--------------------|

E
B
G-------------------------------------------------|
D6-6-666-xx-6999-xx-9-9-999-xx-9333-xx-3-3-333-xx-|
A6-6-666-xx-6999-xx-9-9-999-xx-9333-xx-3-3-333-xx-|
D6-6-666-xx-6999-xx-9-9-999-xx-9333-xx-3-3-333-xx-|

E-------------------------------------------------------------------|
B-------------------------------------------------------------------|
G-------------------------------------------------------------------|
D-888-xx-8-8888-xx-8-8555-xx-5-5-555-xx-5666-xx---------------------|
A-888-xx-8-8888-xx-8-8555-xx-5-5-555-xx-5666-xx---------------------|
D 888-xx-8-8888-xx-8-8555-xx-5-5-555-xx-5666-xx---------------------|


E------------------------------------------------------------------|
B------------------------------------------------------------------|
G-3333-xx-3-3-333-xx-3555-xx-5-5-555-xx-5-66666--------------------|
D-3333-xx-3-3-333-xx-3555-xx-5-5-555-xx-5-66666--------------------|
A-3111-xx-1-1-111-xx-1333-xx-3-3-333-xx-3-44444--------------------|
D-3----------------------------------------------------------------|

Pre chorus (x2)

E-------------------------------------------------------|
B-------------------------------------------------------|
G-------------------------------------------------------|
D-444444444-7777-9999-000000000000000-------------------|
A-444444444-7777-9999-000000000000000-------------------|
D-444444444-7777-9999-000000000000000-------------------|

E--------|
B--------|
G--------|
D-xxxx
A-xxxxx
D-xxxxx

Chorus
E---------------------------------------------------------|
B---------------------------------------------------------|
G--------- 77777777-55555555-4444-6666--------------------|
D-88888888-77777777-55555555-4444-6666--------------------|
A-88888888-55555555-33333333-2222-4444--------------------|
D-88888888------------------------------------------------| (x2)

E-----------|
B-----------|
G-----------|
D-3-5-7-----|
A-3-5-7-----|
D-3-5-7-----|

Jacks part: (x2)
E-------------------------------------------------------------|
B-------------------------------------------------------------|
G----------------------------10-8-10-11-10-8-7h8--------------|
D-------------------------------------------------------------|
A-------------------------------------------------------------|
D-------------------------------------------------------------|

Bridge (slow part): Im not sure how many times to play it but its an estimate
E-----------------------------------------------------------------|(x4)
B-------------14p12-----------------------------------------------|
G-13p12-13p12-------13p12-13p12-13p12-14p12-----------------------|
D-----------------------------------------------------------------|
A-----------------------------------------------------------------|
D-----------------------------------------------------------------|

E----------------------|
B-------14p1-----------|2(x4)
G13p12-----------------|
D----------------------|
A----------------------|
D----------------------|

E-----------------------------------------------------------------|(x4)
B-------------14p12-----------------------------------------------|
G-13p12-13p12--------13p12-13p12-13p12-14p12----------------------|
D-----------------------------------------------------------------|
A-----------------------------------------------------------------|
D-----------------------------------------------------------------|

E-------------------------------------------|
B-14p13p12----------------------------------|
G--------------14p13p12---------------------|
D----------------------------14p13p12-------|
A-------------------------------------------|
D-------------------------------------------|

Faster bridge
Jack’s part
E------1212-----------------------------------------|  (X8) sweep first part
B---11------11------13p12---------------------------|
G10-------------10--------14p13---------------------|
D-------------------------------13p12---------------|
A---------------------------------------------------|
D---------------------------------------------------|

E------------------------------------------------|
B-141414141414-17171717171717*-------------------| *pinch harmonic
G------------------------------------------------|
D------------------------------------------------|
A------------------------------------------------|
D------------------------------------------------|

Ant’s part
E-----------------------------------|(x2)
B-----------------------------------|
G-------77-77-10-10-55-66-----------|
D-88-88-77-77-10-10-55-66-----------|
A-88-88-55-55-88-88-33-44-----------|
D-88-88-----------------------------|

E-----------------------------|
B-----------------------------|
G-6666666/777777777
D-6666666/777777777
A-4444444/555555555
D---------------------------

Chorus
E---------------------------------------------------------|
B---------------------------------------------------------|
G----------77777777-55555555-4444-6666--------------------|
D-88888888-77777777-55555555-4444-6666--------------------|
A-88888888-55555555-33333333-2222-4444--------------------|
D-88888888------------------------------------------------| (x2)

E--------------------------------------------------------|
B--------------------------------------------------------|
G--------------------------------------------------------|
D-3333333333-5555555555-7777777777777--------------------|
A-3333333333-5555555555-7777777777777--------------------|
D-3333333333-5555555555-7777777777777--------------------|

Outro
E-----------------------------------------------|
B-----------------------------------------------|
G-----------------------------------------------|
D-4-4x-444-77x-999x-00x00x00x0------------------|0x
A-4-4x-444-77x-999x-00x00x00x0------------------|0x
D-4-4x-444-77x-999x-00x00x00x0-0x---------------|(X2)


E------------------|
B------------------|
G------------------|
D-4---7---9--0-----|
A-4---7---9--0-----|
D-4---7---9--0-----|

*=pinch harmonic
/=slide up
h=hammer on
p=pull off
x=muted note
Tap to rate this tab
# A B C D E F G H I J K L M N O P Q R S T U V W X Y Z