Song name
# A B C D E F G H I J K L M N O P Q R S T U V W X Y Z

Bayside - Already Gone tab

drop d

pick slide...
e -----------------------------------------------------------------|
b -----------------------------------------------------------------|
g -----------------------------------------------------------------|
d -----------------------------------------------------------------|
a ---------------0-3-5-5-5-5-5-3-0------------0----0-0-0-0-0-0-0-0-|
D 0-0-0-0-0-0-0-3-----------------5-3-3-3-3-3--5-3-----------------|

e ----------------------------------------------------------------|
b ----------------------------------------------------------------|
g -------------------------------------------------5-5-5-5-2-/----|
d -------------------------------------------------5-5-5-5-2-/----|
a ---------------0-3-5-5-5-5-5-3-0------------0----3-3-3-3-0-/----|
D 0-0-0-0-0-0-0-3-----------------5-3-3-3-3-3--5-3----------------|
Tap to rate this tab
 
# A B C D E F G H I J K L M N O P Q R S T U V W X Y Z