Song name
# A B C D E F G H I J K L M N O P Q R S T U V W X Y Z

Bayside - No One Understands tab

Band: Bayside
Song: No One Understands
Album: Shudder
Tuing: D Standard

For the people who do not know, Bayside plays most of their songs in D Standard. 
The rest of their songs are tuned into drop C.

It should be: D
              A
              F
              C
              G
              D

SO if you'd like to play just like Bayside, I suggest you tune it to that.
If you're a beginner, just play it regular Standard tuning (:

I'm about 100% on this song.
It's just the rhythm part, 
but I'll have the lead figured out in no time so keep checkin' in.

Anthony Raneri - Singer/Guitar 1

Intro

D|---------------------------------------------------------------------|
A|---------------------------------------------------------------------|
F|-77-777--77-777----------77-777----------77-777----------77-777------|
C|-77-777--77-777--77-777--77-777--55-555--77-777--77-777--77-777------|
G|-55-555--55-555--77-777--55-555--55-555--55-555--77-777--55-555------|
D|-----------------55-555----------33-333----------55-555---------10/--|x1
   ** ***  ** ***  ** ***  ** ***  ** ***  ** ***  ** ***  ** ***

D|----------------------|
A|----------------------|
F|----------------------|
C|-55-4-5-7-99-7-9-7----|
G|-55-4-5-7-99-7-9-7----|
D|-33-2-3-5-77-5-7-5----|x2
   ** * * * ** * * *

D|-----------------|
A|-----------------|
F|-7-77--7-77------|
C|-7-77--7-77------|
G|-5-55--5-55------|
D|------------10/--|x1

D|----------------------|
A|----------------------|
F|----------------------|
C|-5--4-5-7-9--7-9-7----|
G|-5--4-5-7-9--7-9-7----|
D|-3--2-3-5-7--5-7-5----|x3

D|-----------------|
A|-----------------|
F|-7-77--7-77------|
C|-7-77--7-77------|
G|-5-55--5-55------|
D|------------10/--|x1

Verse

D|----------------------------------------------------------------|
A|----------------------------------------------------------------|
F|-777777777777----------777777----------777777----------777777---|
C|-777777777777--777777--777777--555555--777777--777777--777777---|
G|-555555555555--777777--555555--555555--555555--777777--555555---|
D|---------------555555----------333333----------555555-----------|x1
   ** ** ** **   ** **   ** **   ** **   ** **   ** **   ** **

Pre-chorus

D|-------------------|
A|-------------------|
F|-------------------|
C|-5--4-5-7-9--7-9---|
G|-5--4-5-7-9--7-9---|
D|-3--2-3-5-7--5-7---|x1

D|---------------------|
A|---------------------|
F|---------------------|
C|-5--4-5-7-9--7-9-7---|
G|-5--4-5-7-9--7-9-7---|
D|-3--2-3-5-7--5-7-5---|x2

D|-----------------|
A|-----------------|
F|-7-77--7-77------|
C|-7-77--7-77------|
G|-5-55--5-55------|
D|------------10/--|x1

Chorus

D|-----------------------------|
A|-----------------------------|
F|-77777777-1212121212121212---|
C|-77777777-1212121212121212---|
G|-55555555-1010101010101010---|
D|------------------------------|x2

D|-------------------------------------|
A|-------------------------------------|
F|-------------------------------------|
C|-9999999999999999-5555555555555555---|
G|-9999999999999999-5555555555555555---|
D|-7777777777777777-3333333333333333---|x1

D|-----------------------------|
A|-----------------------------|
F|-77777777-1212121212121212---|
C|-77777777-1212121212121212---|
G|-55555555-1010101010101010---|
D|------------------------------|x2

D|-----------------------------------------------|
A|-----------------------------------------------|
F|---------------------------99999999------------|
C|-1010101010101010-99999999-99999999-77777777---|
G|-1010101010101010-99999999-77777777-77777777---|
D|-8-8-8-8-8-8-8-8--77777777----------55555555---|x1

D|-----------------|
A|-----------------|
F|-7-77--7-77------|
C|-7-77--7-77------|
G|-5-55--5-55------|
D|------------10/--|x1

Verse 2 (Come in at 1:29)


D|-------------------|
A|-------------------|
F|-------------------|
C|-5--4-5-7-9--7-9---|
G|-5--4-5-7-9--7-9---|
D|-3--2-3-5-7--5-7---|x1

D|---------------------|
A|---------------------|
F|---------------------|
C|-5--4-5-7-9--7-9-7---|
G|-5--4-5-7-9--7-9-7---|
D|-3--2-3-5-7--5-7-5---|x2

D|------------|
A|------------|
F|-7-77-------|
C|-7-77-------|
G|-5-55-------|
D|------10/---|x1

Chorus

D|-----------------------------|
A|-----------------------------|
F|-77777777-1212121212121212---|
C|-77777777-1212121212121212---|
G|-55555555-1010101010101010---|
D|------------------------------|x2

D|-------------------------------------|
A|-------------------------------------|
F|-------------------------------------|
C|-9999999999999999-5555555555555555---|
G|-9999999999999999-5555555555555555---|
D|-7777777777777777-3333333333333333---|x1

D|-----------------------------|
A|-----------------------------|
F|-77777777-1212121212121212---|
C|-77777777-1212121212121212---|
G|-55555555-1010101010101010---|
D|------------------------------|x2

D|-----------------------------------------------|
A|-----------------------------------------------|
F|---------------------------99999999------------|
C|-1010101010101010-99999999-99999999-77777777---|
G|-1010101010101010-99999999-77777777-77777777---|
D|-8-8-8-8-8-8-8-8--77777777----------55555555---|x1

D|-------------------|
A|-------------------|
F|-77-777-777-77-----|
C|-77-777-777-77-7---|
G|-55-555-555-55-7---|
D|---------------5---|x1

Bridge

D|-------------------------------------|
A|-------------------------------------|
F|-----7~-------7~-----------7~--------|
C|-5~--7--4~-5~-7--7~--9~-5~-7--4~-5~--|
G|-5---5--4--5--5--7---9--5--5--4--5---|
D|-3------2--3-----5---7--3-----2--3---|x1

Build-up

D|-------------------------------|
A|-------------------------------|
F|-------------------------------|
C|-7777-9999-11111111-12121212---|
G|-7777-9999-11111111-12121212---|
D|-5555-7777-9-9-9-9--10101010---|x1
   **** **** * * * *  * * * *

Higher note Chorus

D|-----------------------------|
A|-----------------------------|
F|-99999999-1414141414141414---|
C|-99999999-1414141414141414---|
G|-77777777-1212121212121212---|
D|-----------------------------|x2

D|-----------------------------------------------------|
A|-----------------------------------------------------|
F|-----------------------------------------------------|
C|-11111111111111111111111111111111-7777777777777777---|
G|-11111111111111111111111111111111-7777777777777777---|
D|-9-9-9-9-9-9-9-9-9-9-9-9-9-9-9-9--5555555555555555---|x1

D|-----------------------------|
A|-----------------------------|
F|-99999999-1414141414141414---|
C|-99999999-1414141414141414---|
G|-77777777-1212121212121212---|
D|-----------------------------|x2

D|-------------------------------------|
A|-------------------------------------|
F|-------------------------------------|
C|-1212121212121212-1111111111111111---|
G|-1212121212121212-1111111111111111---|
D|-1010101010101010-9-9-9-9-9-9-9-9----|x1

D|-----------------------------|
A|-----------------------------|
F|-1111111111111111------------|
C|-1111111111111111-99999999---|
G|-9-9-9-9-9-9-9-9--99999999---|
D|------------------77777777---|x3

Outro

D|----------------|
A|----------------|
F|-9-99--9-99-9~--|
C|-9-99--9-99-9---|
G|-7-77--7-77-7---|
D|----------------|x1
Tap to rate this tab
# A B C D E F G H I J K L M N O P Q R S T U V W X Y Z