Song name
# A B C D E F G H I J K L M N O P Q R S T U V W X Y Z

Bayside - They Looked Like Strong Hands Acoustic tab

Help us improve GuitareTab! Take a short survey!
They Looked Like String Hands
Tuning: Drop D Flat

     B    D    E    G    Bb  Dm  A
Eb|--------------------------------------------|
Bb|--------------------------------------------|
Gb|--4----7--------------3-------2-------------|
Db|--4----7----2----5----3---0---2-------------|
Ab|--2----5----2----5----1---0---0-------------|
Db|-------0----2----5--------0-----------------|

intro:
Eb|------------------------------------------------------------------------|
Bb|------------------------------------------------------------------------|
Gb|------------6^6--7-6-4--------------------------------------------------|
Db|------4---4------------7-5-4------------------4h5p4---4-----------------|
Ab|--2-5---5---------------------2-5-7^7-5--7-5--------7---5---------------|
Db|------------------------------------------------------------------------|

Eb|------------------------------------------------------------------------|
Bb|------------------------------------------------------------------------|
Gb|------------6^6--7-6-4--------------------------------------------------|
Db|------4---4------------7-5-4--------------------------------------------|
Ab|--2-5---5---------------------2-5-7^7-5--7-5--7^7--5h7p5----------------|
Db|------------------------------------------------------------------------|

	       B 
This isn't who I am.
          D			    E
From confidence to self doubt in 60 seconds.
          G               D
Storming stages and stereos from here to there,
B                        D
trying to prove that I belong.
	  E          G     D
Trying to win approval from people that I don't know.


____Chorus____
G     Bb       B 
And I look so strong
         D		   G
when the weight of all the world
      A         Dm
don't take it's toll.
G       Bb         B 
And I'd choose my side
       D		  G
if I believed in what was right,
    A       Dm
but I'm all wrong.

_______
B 					      D
I'm not larger than life, I'm not taller than trees.
					  E   G                 D
Do I mean what I say or is it just this disease where I never go home?
B                                           D
Never telling the truth, how this life eats away.
Not admitting I'm fake.
        E                  G                           D
And I'm questioning if this whole thing was worth it to die poor and all alone?


	[Chorus]


Just don't tell me this doesn't mean the world,
'Cause my ears would bleed and my heart would hit the floor.

bridge:
Eb|----------------------------------------------------|-------------------|
Bb|----------------------------------------------------|-------------------|
Gb|---------------------------------------------2h4p2--|-------------------|
Db|-------4-4-4-------5-4-2---------4-4-4-------------4|--4---5-4-3----5-7-|
Ab|-2-2-2-------2-2-2-------5-2-2-2-------4-4-4--------|2---2-------5--5-7-|
Db|----------------------------------------------------|---------------5-7-|

Eb|----------------------------|-------------------------------------------|
Bb|----------------------------|-------------------------------------------|
Gb|-----------7-6-2-4--2-4-2---|-------5-----------------------------------|
Db|--0--4--0--7-6-2-4--2-4-2-0-|-4--7--5-----------------------------------|
Ab|--0--4--0--5-4-0-2--0-2-0-0-|-4--7--5-----------------------------------|
Db|--0--4--0-----------------0-|-4--7--------------------------------------|
NOTE : play second part only on the first time

[Chorus]
Related for They Looked Like Strong Hands Acoustic tab