Bayside - Killing Time tab

title track of Bayside's last album, Killing Time
Tuning is drop c.
I was too lazy to put down the strumming patterns for all the chord progressions but i 
did for a few anyways. so just listen to the song and figure it out. great song btw
/=slide up *= pinch harmonic

(Start with pick slide)
Intro/chorus:
Rythm:
D------------------------------------|(x2)
A------------------------------------|
F--------3---------------5-----------|
C---0----3-------3-------5-----------|
G---0----1-------3-------3-----------|
C---0------------3-------------------|
Lead:
D-------------------------------------------------------------|(x2)
A-------------------------------------------------------------|
F-------------------------------------------------------------|
C---7--7/8-7--5--5-----------10--10/12-10---7---7-------------|
G-55-5-------8--8--8-7-8*---8--8----------10--10--10-8-7*-----|
C-------------------------------------------------------------|
                             /\     /\  those are tens and twelves
Verse:
( i think this is only lead)
D---5-----------5------------6-----------5----------|(x2)
A-----6-----------6------------6-------5---5--------|
F-------7-----------7------------7---6-------6------|
C---------------------------------------------------|
G---------------------------------------------------|
C---------------------------------------------------|
then...
D--5--------6----------5------------- (x2)------|     Palm mute throughout when
A--6--------6----------5------------------------|           necessary
F--7--------7----------6------------------------|
C--7--------------------------------------------|
G-----------------------------------------------|
C-----------------------------------------------|

Pre Chorus
D------------------------------|     I'm not sure if its both lead and rythm
A------------------------------|    if there is a rythm it is the same chords
F--7-77-9-99-1010-12-1212-14~--|    but an octave lower...so C D D/E F G
C--x-xx-x-xx-x-xx-xx-xxxx-xx---|
G--5-55-7-77-8-88-10-1010-12~--|
C------------------------------|
     ..   ..   ..    ....               ------for when to palmmute

(intro/chorus)

Chorus Part 2:
Rythm
D-----------------------------------------|
A-----------------------------------------|
F-10--9--7--6--3------5----6--------------|
C-10-10--7--7--3------5----6--------------|
G--8--7--5--4--1------3----4--------------|
C-----------------------------------------|
Lead:
D-----------------------------------------|
A-----------------------------------------|
F-10--9--7--6--3------5----6--------------|
C--x--x--x--x--x------x----x--------------|
G--8--7--5--4--1------3----4--------------|
C-----------------------------------------|

Post-Chorus:
Rythm:
D--------------------------------|(x2)
A--------------------------------|
F-7777-9-1010-5-3333-6--6-6------|
C-7777-9-1010-5-3333-6--6-6------|
G-5555-7-8888-3-1111-4--4-4------|
C--------------------------------|
                     /\   /\  this chord might be 476 instead of 466
D-------------------------------------------------------|
A--------10---------------------------------------------|
F--10-------12-10-9-------------------------------------|
C-----10-------------12-10--12/14--12-10-12*-12*--------|
G-------------------------------------------------------|
C-------------------------------------------------------|

D-------------------------------------------------------------|
A--------10---------------------------------------------------|
F--10-------12-10-9-------------------------------------------|
C-----10------------12-10--12/14- 12-10-11*-11*---------------|
G-------------------------------------------------------------|
C-------------------------------------------------------------|

(Verse-play the second part only.x2...so x4)

(intro/Chorus)

(Chorus part 2)

Bridge:

Rythm
D----------------------------------------------------|(x2)
A----------------------------------------------------|
F--7--------10---------5------------3----------------|
C--7--------10---------5------------3----------------|
G--5--------8----------3------------1----------------|
C----------------------------------------------------|
Lead
D-------------------------------------|(x2)
A-------------------------------------|
F--7-777-/109-/1097-5-55-5-5/7--------|
C--x-xxx--x-x--x-xx-x-xx-x-x-x--------|
G--5-555-/8-7-/8-75-3-33-3-3/5~-------|
C-------------------------------------|
then...
rythm

D-------------------------------|
A-------------------------------|
F--7--------10------------------|
C--7--------10------------------|
G--5--------8-------------------|
C-------------------------------|
lead
D----------------------------|
A----------------------------|
F--7-777-/109-/1097-5--------|
C--x-xxx--x-x--x-xx-x--------|
G--5-555-/8-7-/8-75-3--------|
C----------------------------|
then Pre chorus

Chorus (first time thru just rythm guitar no strumming)

Chorus Part 2:
Rythm
D-----------------------------------------|
A-----------------------------------------|
F-10--9--7--6--3--------------------------|
C-10-10--7--7--3--------------------------|
G--8--7--5--4--1--------------------------|
C-----------------------------------------|
Lead:
D-----------------------------------------|
A-----------------------------------------|
F-10--9--7--6--3--------------------------|
C--x--x--x--x--x--------------------------|
G--8--7--5--4--1--------------------------|
C-----------------------------------------|

then for 2nd time
Chorus Part 2:
Rythm
D-----------------------------------------|
A-----------------------------------------|
F-10--9--7--6--3------5----6--------------|
C-10-10--7--7--3------5----6--------------|
G--8--7--5--4--1------3----4--------------|
C-----------------------------------------|
Lead:
D---------------------------------------------------|
A---------------------------------------------------|
F-1010--12--14--15--14--12--10-9----3-----5----6----|
C--x-x--xx--xx--xx--xx--xx--x--x----x-----x----x----|
G--8-8--10--12--13--12--10--8--7----1-----3----4----|
C---------------------------------------------------|

Post Chorus (x 4 times)  (for the 2nd and 3rd time thru on lead end with 11*
                          and end on 10* for last time)
End on
lead                             rythm
D-----------------|-------------------------------------|
A-----------------|-------------------------------------|
F-----------------|-----------6-------------------------|
C-- /10\----------|-----------7-------------------------|
G-----------------|-----------4-------------------------|
C-----------------|-------------------------------------|
Tap to rate this tab
 
# A B C D E F G H I J K L M N O P Q R S T U V W X Y Z