Song name
# A B C D E F G H I J K L M N O P Q R S T U V W X Y Z

Beach Fossils - Moments tab

|--12----------------------------------|
|--10--12------------------------------|
|--11--11------------------------------|
|--12--12------------------------------|
|--------------------------------------|
|--------------------------------------|

strum around these two chords mainly start at the
d-string and strum down like:

|---------------12-12------------------|
|---------10-10-10-10------------------|
|--11--11-11-11-11-11------------------|
|--12--12-12-12-12-12------------------|
|--------------------------------------|
|--------------------------------------|
Tap to rate this tab
# A B C D E F G H I J K L M N O P Q R S T U V W X Y Z