Beady Eye - Bring The Light tab

Title: Bring The Light
Artist: Beady Eye

Tempo: 159 bpm

Chords:
A5 (x022xx)
E5 (022xxx)
D (xx0232)
F#m7 (242222) 
G (3x0033)
G5 (3x00xx)
D5 (xx023x)

Note: Capo 3

Intro:
  A5
E|----------------|----------------|
B|----------------|----------------|
G|2-2-2-2-2-2-2-2-|2-2-2-2-2-2-2-2-|
D|2-2-2-2-2-2-4-4-|5-5-4-4-0-0-4-0-|
A|0-0-0-0-0-0-0-0-|0-0-0-0-0-0-0-0-|
E|----------------|----------------|

E|----------------|----------------|
B|----------------|----------------|
G|--2-2-2-2-2-2-2-|2-2-2-2-2-2-2-2-|
D|--2-2-2-2-2-4-4-|5-5-4-4-0-0-4-0-|
A|--0-0-0-0-0-0-0-|0-0-0-0-0-0-0-0-|
E|----------------|----------------|

Verse 1:
A5
I bring the light
You get to see
You bring the love
It's ecstacy
  E5
  I see no point in what you're thinking
E|----------------|----------------|
B|----------------|----------------|
G|----------------|----------------|
D|2-2-2-2-2-2-2-2-|--2-2-2-2-2-2-2-|
A|2-2-4-2-2-2-4-5-|--5-4-4-0-4-0-2-|
E|0-0-0-0-0-0-0-0-|--0-0-0-0-0-0-0-|
    
  I'm going out I'm talking you drinking
E|----------------|----------------|
B|----------------|----------------|
G|----------------|--------------0-|
D|--2-2-2-2-2-2-2-|--2-2-2-5-5-4-2-|
A|--2-4-2-2-2-4-5-|--5-4-4-2-2-2-0-|
E|--0-0-0-0-0-0-0-|--0-0-0-0-0-0---|

A5
I get the car, you're getting up
I'm standing tall, well fu**ing tough
E5
It's just your way, you hear me wrong
I hear you say you're getting up, getting up

Chorus:
D          F#m7  G
Baby hold on
           A5
Baby come on
Baby come on
You're gettin up, gettin up
D          F#m7  G        
Baby hold on
           A5
Baby come on
Baby come on
You're gettin up, gettin up

Guitar Riff: (Don't forget this is related to the capo position)
E|------------------------|----|
B|10b12r10-8--------------|----|
G|-----------9----7-5-----|----|
D|---------------------7--|----|
A|------------------------|----|
E|------------------------|----|    X2

Verse 2:
I bring the light
You get to see
You bring the love
It's ecstacy
I see no point in what you're thinking
I'm going out I'm takin you drinkin

I'm coming in, you're coming out
I'm coming up, you're coming down
It's just you're way, you do me wrong
I hear you say you're gettin up, gettin up

Chorus:
Baby hold on
Baby come out
Baby come out
You're gettin up, gettin up
Baby hold on
Baby come on
Baby come on
You're gettin up, gettin up

Solo:
  E5         G5        D5  
E|------------------------|------------------------|
B|10b12r10-8--------------|------------------------|
G|-----------9----7-5-----|------------------------|
D|---------------------7--|------------------------|
A|------------------------|------------------------|
E|------------------------|------------------------|
  E5        G5         D5  
E|---------------------10-|------------------------|
B|10b12r10-12----10h12-10-|------------------------|
G|------------------------|------------------------|
D|------------------------|------------------------|
A|------------------------|------------------------|
E|------------------------|------------------------|
  E5         G5        D5  
E|------------------------|------------------------|
B|10b12r10-8--------------|------------------------|
G|-----------9----7-5-----|------5-----5-----------|
D|---------------------7--|------5-----5--7p5------|
A|------------------------|--------h7--------------|
E|------------------------|------------------------|
  E5        G5             A5
E|------------------------|------------------------|
B|0-----0-----0-----------|------------------------|
G|2b4---2b4---2b4r2-0--0--|------------------------|
D|------------------------|------------------------|
A|------------------------|------------------------|
E|------------------------|------------------------|

  E5         G5        D5   
E|------------------------|------------------------|
B|10b12r10-8--------------|------------------------|
G|-----------9----7-5-----|------------------------|
D|---------------------7--|------------------------|
A|------------------------|------------------------|
E|------------------------|------------------------|
  E5         G5        D5 
E|---------------------10-|------------------------|
B|10b12r10-12----10h12-10-|------------------------|
G|------------------------|------------------------|
D|------------------------|------------------------|
A|------------------------|------------------------|
E|------------------------|------------------------|
  E5         G5        D5 
E|------------------------|------------------------|
B|10b12r10-8--------------|------------------------|
G|-----------9----7-5-----|------5-----5-----------|
D|---------------------7--|------5-----5--7p5------|
A|------------------------|--------h7--------------|
E|------------------------|------------------------|
  E5         G5            A5
E|------------------------|------------------------|
B|0-----------------------|0-----0-----0-----0-----|
G|2b4---------------------|2b4---2b4---2b4---2b4---|
D|------------------------|------------------------|
A|------------------------|------------------------|
E|------------------------|------------------------|

E|------------------------|------------------------|
B|0-----0-----0-----------|2-----------------------|
G|2b4---2b4---2b4r2----0--|2-----------------------|
D|------------------------|------------------------|
A|------------------------|------------------------|
E|------------------------|------------------------|

Outro:
A5
Baby come on
Baby come on
Baby come on
Baby come on
E5  G5  A5  x4
come on, come on, come on,  ome on,......

A5
Well, baby come on ....
come on, come on, come on, come on,......




Here's just the chords as they are without a capo...

Intro:
C5

Verse 1:
C5
I bring the light
You get to see
You bring the love
It's ecstacy
G5
I see no point in what you're thinking  
I'm going out I'm talking you drinking

C5
I get the car, you're getting up
I'm standing tall, well fu**ing tough
G5
It's just your way, you hear me wrong
I hear you say you're getting up, getting up

Chorus:
F          Am7  A#
Baby hold on
           C5
Baby come on
Baby come on
You're gettin up, gettin up
F          Am7  A#        
Baby hold on
           C5
Baby come on
Baby come on
You're gettin up, gettin up

Verse 2:
I bring the light
You get to see
You bring the love
It's ecstacy
I see no point in what you're thinking
I'm going out I'm takin you drinkin

I'm coming in, you're coming out
I'm coming up, you're coming down
It's just you're way, you do me wrong
I hear you say you're gettin up, gettin up

Chorus:
Baby hold on
Baby come out
Baby come out
You're gettin up, gettin up
Baby hold on
Baby come on
Baby come on
You're gettin up, gettin up

Solo:
G5  A#5  F5  
G5  A#5  F5
G5  A#5  F5
G5  A#5   C5    x2

Outro:
C5
Baby come on
Baby come on
Baby come on
Baby come on
G5  A#5  C5  x4
come on, come on, come on,  ome on,......

C5
Well, baby come on ....
come on, come on, come on, come on,......
Tap to rate this tab
 
# A B C D E F G H I J K L M N O P Q R S T U V W X Y Z