Song name
# A B C D E F G H I J K L M N O P Q R S T U V W X Y Z

Bear Vs Shark - Catamaran tab

Here's what I can grasp of the song.
It's primarily to set you on the right course. There may be some errors. Feel free
to let me know what can be improved.

enjoy.

Intro:
He begins by muting while strumming quickly. Listen to the song for the rhythm.

                                                                 x2
e|-----------------------------------------------------------------|
B|-----------------------------------------------------------------|
G|-----------------------------------------------------------------|
D|11-11-11-XXXXXXXXXX--11-11-11-XXXXXXXXXX-------------------------|
A|11-11-11-XXXXXXXXXX--11-11-11-XXXXXXXXXX-------------------------|
E|-9--9--9-XXXXXXXXXX---9--9--9-XXXXXXXXXX-------------------------|

Chorus:                pretty much played throughout the whole song...
e|0-0-0-0-0-0-0-0---------------------------------------------------|
B|5-5-5-5-5-5-5-5---------------------------------------------------|
G|6-6-6-6-6-6-6-6/9-9-9-9-9-9-9-9-----------------8-8-8-8-8-8-8-8-9-|
D|6-6-6-6-6-6-6-6/9-9-9-9-9-9-9-9-7-7-7-7-7-7-7-7-x-x-x-x-x-x-x-x-x-|
A|4-4-4-4-4-4-4-4/7-7-7-7-7-7-7-7-7-7-7-7-7-7-7-7-6-6-6-6-6-6-6-6-7-|
E|--------------------------------5-5-5-5-5-5-5-5-------------------|


muted: x
slide: /
Tap to rate this tab
# A B C D E F G H I J K L M N O P Q R S T U V W X Y Z