Song name
# A B C D E F G H I J K L M N O P Q R S T U V W X Y Z

Beastie Boys - Tough Guy tab

Intro
|---------------------------------|
|---------------------------------|
|---------------------------------|
|-3-3---3-6-6-5-6-8-8---8-8-8---8-| X2
|-3-3---3-6-6-5-6-8-8---8-8-8---8-|
|-1-1---1-4-4-3-4-6-6---6-6-6---6-|

Verse 1
|-------------------------------------------------------------|
|-------------------------------------------------------------|
|-------------------------------------------------------------|
|-3-3---3-6-6-5-6-8-8---8-8-8---8-3-3---3-6-6-5-6-8-8---8-7-7-| X2
|-3-3---3-6-6-5-6-8-8---8-8-8---8-3-3---3-6-6-5-6-8-8---8-7-7-|
|-1-1---1-4-4-3-4-6-6---6-6-6---6-1-1---1-4-4-3-4-6-6---6-5-5-|
Butcher me on the court           Too Many Elbows...

Chorus
|-----------------------------------------------------------------------|
|-----------------------------------------------------------------------|
|-----------------------------------------------------------------------|
|-9-9---9-9-9---9-10-10---10-10-10---10-6-6---6-6-6---6-6-6---6-6-6---6-| X2
|-9-9---9-9-9---9-10-10---10-10-10---10-6-6---6-6-6---6-6-6---6-6-6---6-|
|-7-7---7-7-7---7-8--8----8--8--8----8--4-4---4-4-4---4-4-4---4-4-4---4-|
Tough Guy...
|---------------------------------------------------------|
|---------------------------------------------------------|
|-------------------------------------------------12---11-|
|-9-9---9-9-9---9-10-10---10-10-10---10-6---------12---11-|
|-9-9---9-9-9---9-10-10---10-10-10---10-6---------10---9--|
|-7-7---7-7-7---7-8--8----8--8--8----8--4-----------------|
                Your shit is going out....        ^----^Ring out

Verse 1
|-------------------------------------------------------------|
|-------------------------------------------------------------|
|-------------------------------------------------------------|
|-3-3---3-6-6-5-6-8-8---8-8-8---8-3-3---3-6-6-5-6-8-8---8-7-7-| X2
|-3-3---3-6-6-5-6-8-8---8-8-8---8-3-3---3-6-6-5-6-8-8---8-7-7-|
|-1-1---1-4-4-3-4-6-6---6-6-6---6-1-1---1-4-4-3-4-6-6---6-5-5-|
Box me out with your fat ass...

Chorus
|-----------------------------------------------------------------------|
|-----------------------------------------------------------------------|
|-----------------------------------------------------------------------|
|-9-9---9-9-9---9-10-10---10-10-10---10-6-6---6-6-6---6-6-6---6-6-6---6-| X2
|-9-9---9-9-9---9-10-10---10-10-10---10-6-6---6-6-6---6-6-6---6-6-6---6-|
|-7-7---7-7-7---7-8--8----8--8--8----8--4-4---4-4-4---4-4-4---4-4-4---4-|
Tough guy....
|---------------------------------------------------------|
|---------------------------------------------------------|
|-------------------------------------------------12---11-|
|-9-9---9-9-9---9-10-10---10-10-10---10-6---------12---11-|
|-9-9---9-9-9---9-10-10---10-10-10---10-6---------10---9--|
|-7-7---7-7-7---7-8--8----8--8--8----8--4-----------------|
                                                  ^----^Ring out

Outro
|---------------------------------------------------|
|---------------------------------------------------|
|---------------------------------------------------|
|-3-3---3-6-6-5---3-3---3-6-6-5---3-3---3-6-6-5---3-|
|-3-3---3-6-6-5---3-3---3-6-6-5---3-3---3-6-6-5---3-|
|-1-1---1-4-4-3---1-1---1-4-4-3---1-1---1-4-4-3---1-|
Tough guy your shit is weak...
Tap to rate this tab
# A B C D E F G H I J K L M N O P Q R S T U V W X Y Z