Song name
# A B C D E F G H I J K L M N O P Q R S T U V W X Y Z

Beat Crusaders - Moon On The Water tab

S

Couplet 1, Gtr 1

e----0-----|--------------|-----------|---------|---------0-------|---------0-|
B------0---|-----10----10-|-------4\5-|-----2\4-|-----0-----0---0-|-----0-----|
G--------3-|---9----9--8--|-----------|---------|-------2-----2---|-------2---|
D----------|-7---------7--|-----6-----|---4-----|---2-------------|---2-------|
A--2-------|--------------|-3\4-------|-2-------|-0---------------|-0---------|
E0---------|--------------|-----------|---------|-----------------|-----------|

e----------|------------|---------|-------|--------0------|--------0|
B-----9----|----10----10|------4\5|----2/4|----0-----0---0|----0----|
G----------|--9----9--8-|---------|-------|------2-----2--|------2--|
D---9---9-8|7---------7-|----6----|--4----|--2------------|--2------|
A-7--------|------------|3\4------|2------|0--------------|0--------|
E----------|------------|---------|-------|---------------|---------|

Gtr 2

e-------------0-0---|---------------0-|
B-------------0-0---|---------------0-|
G-1-1-1-1-1-1-2-2-2-|-6-6-4-4-2-2-2-2-|
D-2-2-2-2-2-2-2-2-1-|-6-6-4-4-2-2-2-2-|
A-2-2-2-2-2-2-0-0---|-4-4-2-2---------|
E-------------------|-----------------|

Chorus 1

e-------------------------|
B-------------------------|
G-6-6-2-2-9-9-4-4-2-2-4-4-|
D-6-6-2-2-9-9-4-4-2-2-4-4-|
A-4-4-0-0-7-7-2-2-0-0-2-2-|
E-------------------------|

e---------------------------------<12>--------|
B------------------------------------<12>-<12>|
G-6-6-2-2-9-9-4-4-2-2-4-4-2-2-2-2-------------|
D-6-6-2-2-9-9-4-4-2-2-4-4-2-2-2-2-------------|
A-4-4-0-0-7-7-2-2-0-0-2-2-0-0-0-0-------------|
E---------------------------------------------|

Couplet 2, Gtr 1.

e----0-----|--------------|-----------|------7--|---------0-------|---------0-|
B------0---|-----10----10-|-------4\5-|---------|-----0-----0---0-|-----0-----|
G--------3-|---9----9--8--|-----------|---------|-------2-----2---|-------2---|
D----------|-7---------7--|-----6-----|---4-----|---2-------------|---2-------|
A--2-------|--------------|-3\4-------|-2-------|-0---------------|-0---------|
E0---------|--------------|-----------|---------|-----------------|-----------|

Gtr 2

e-------------0-0---|---------------0-|
B-------------0-0---|---------------0-|
G-1-1-1-1-1-1-2-2-2-|-6-6-4-4-2-2-2-2-|
D-2-2-2-2-2-2-2-2-1-|-6-6-4-4-2-2-2-2-|
A-2-2-2-2-2-2-0-0---|-4-4-2-2---------|
E-------------------|-----------------|

Chorus 2

e-------------------------|
B-------------------------|
G-6-6-2-2-9-9-4-4-2-2-4-4-|
D-6-6-2-2-9-9-4-4-2-2-4-4-|
A-4-4-0-0-7-7-2-2-0-0-2-2-|
E-------------------------|

e-----------------------------------------|
B-----------------------------------------|
G-6-6-2-2-9-9-4-4-2-2-4-4-2-2-2-2---------|
D-6-6-2-2-9-9-4-4-2-2-4-4-2-2-2-2---------|
A-4-4-0-0-7-7-2-2-0-0-2-2-0-0-0-0---------|
E-----------------------------------------|

Couplet 3

e----0-----|--------------|-----------|---------|---------0-------|---------0-|
B------0---|-----10----10-|-------4\5-|-----2\4-|-----0-----0---0-|-----0-----|
G--------3-|---9----9--8--|-----------|---------|-------2-----2---|-------2---|
D----------|-7---------7--|-----6-----|---4-----|---2-------------|---2-------|
A--2-------|--------------|-3\4-------|-2-------|-0---------------|-0---------|
E0---------|--------------|-----------|---------|-----------------|-----------|

e----0-----|--------------|--------7----7-----5-|-0---------|---------0-|
B------0---|-----10----10-|----4-5--4-5---4-5---|---0---0---|---------0-|
G--------3-|---9----9--8--|---------------------|-----2-----|-2-2-2-2-2-|
D----------|-7---------7--|---------------------|-----------|-2-2-2-2-2-|
A--2-------|--------------|-4-------------------|-----------|-----------|
E0---------|--------------|---------------------|-----------|-----------|

Chorus 3 : Gtr 1 & 2 play the same as before, and a 3rd play this couple of notes

e--9-9-9-12-12--12-12-12-11-11-11-11-9-9-9-9-11--11-12-12-|
B---9-9-9--9--9---9--9--9--9--9--9--9-9-9-9-9--9---9--9---|
G---------------------------------------------------------|
D---------------------------------------------------------|
A---------------------------------------------------------|
E---------------------------------------------------------|

Outro

e----0-----|--------------|--------7----7-----5-|-0---------|---------0-|
B------0---|-----10----10-|----4-5--4-5---4-5---|---0---0---|---------0-|
G--------3-|---9----9--8--|---------------------|-----2-----|-2-2-2-2-2-|
D----------|-7---------7--|---------------------|-----------|-2-2-2-2-2-|
A--2-------|--------------|-4-------------------|-----------|-----------|
E0---------|--------------|---------------------|-----------|-----------|

e----0-----|--------------|-----------|------7--|---------0-------|---------0-|
B------0---|-----10----10-|-------4\5-|---------|-----0-----0---0-|-----0-----|
G--------3-|---9----9--8--|-----------|---------|-------2-----2---|-------2---|
D----------|-7---------7--|-----6-----|---4-----|---2-------------|---2-------|
A--2-------|--------------|-3\4-------|-2-------|-0---------------|-0---------|
E0---------|--------------|-----------|---------|-----------------|-----------|


have a nice play ;)
                                                Thecanonrocker
Tap to rate this tab
# A B C D E F G H I J K L M N O P Q R S T U V W X Y Z