Song name
# A B C D E F G H I J K L M N O P Q R S T U V W X Y Z

Beat Crusaders - Moon On The Water tab

>>>>>>>>>Hao<<<<<<<<<<<<<<<<<<<<<<<<<<<
>>>this tabbed song isnt 100% right becaused i used only my ears and i didnt based mine
the other tabs,, so feel free to criticize it ^^ oh yeah and my tabs is the lower tune
the song "i was arguing with our vocalist because he was blurting that the tune was for 
version" anyways try it if you want...

Chords Used:
    E         A9        C#m        B
|--------||--------||---4---||----2----||
|--------||---2----||---5---||----4----||
|----1---||---2----||---6---||----4----||
|----2---||--------||---6---||----2----||
|----2---||--------||---4---||----2----||
|--------||--------||-------||---------||
Intro:
    E         A9       C#m     B           A9
|---0----||--5-----||-------------------0-------0--------------|
|--------||---5-4--||-5-4h5--4-2h4-0-0---0-0-0-----------------|
|----4-3-||--------||--6------4-------2---2-2-2----------------|
|--2-----||-2------||------------------2-------2---------------|
|--------||0-------||------------------------------------------|
|-0------||--------||------------------------------------------|

Guitar1= does the intro
Guitar2= does the strumming

E         A9
Full moon sways
C#m           B                 A9
Gently in the night of one fine day

E     A9
On my way
C#m           B              A9
Looking for a moment with my dear

E         A9
Full moon waves
C#m           B              A9
Slowly on the surface of the lake

E        A9
You were there
C#m           B                  A9
Smiling in my arms for all those years

C#m
What a fool
A9                 E
I don't know 'bout tomorrow
B                 A9
What it's like to be
A9
Ah...

C#m
I was fool
A9                     E
Couldn't let myself to go
B             A9
Even though I feel
A9
The end

E        A9
Old love affair
C#m             B                A9
Floating like a bird resting her wings

E        A9
You were there
C#m           B                  A9
Smiling in my arms for all those years

C#m
What a fool
A9                 E
I don't know 'bout tomorrow
B                 A9
What it's like to be
A9
Ah...

C#m
I was fool
A9                     E
Couldn't let myself to go
B             A9
Even though I feel
A9
The end

Outro or Ablib?? couldnt tell haha >.<

 E         A9       C#m     B           A9
|---0----||--5-----||------7------5-------0-------0------------|
|--------||---5-4--||-5-4h5--4-2h4---0---0-0-0-----------------|
|----4-3-||--------||--6------4-------2---2-2-2----------------|
|--2-----||-2------||------------------2-------2---------------|
|--------||0-------||------------------------------------------|
|-0------||--------||------------------------------------------|

 E         A9       C#m     B           A9
|---0----||--5-----||-------------------0-------0--------------|
|--------||---5-4--||-5-4h5--4-2h4-2-0---0-0-0-----------------|
|----4-3-||--------||--6------4-------2---2-2-2----------------|
|--2-----||-2------||------------------2-------2---------------|
|--------||0-------||------------------------------------------|
|-0------||--------||------------------------------------------|

         |\____________________/|
the end (>______________________<) hey whats with the preview?? i cant see if i tabbed
right,, haha ^^ hope you liked it ^^
Tap to rate this tab
# A B C D E F G H I J K L M N O P Q R S T U V W X Y Z