Song name
# A B C D E F G H I J K L M N O P Q R S T U V W X Y Z

Beat Crusaders - 50 Wisdom tab

this is just some parts of the song i could figure out hope you find them useful to figure out the hole song

intro
|-------------------------|
|-------------------------|
|-------------------------| x7
|-------------------------|
|-----------------4-5-4-0-|
|-3-55-3-5-3-5--3---------|

then
|-----------|
|-----------|
|---------5-|
|-5---3---5-| 
|-5---3---3-|
|-7---5-----|

verse x2

|-------------------------|
|-------------------------|
|-------------------------| x3
|-------------------------|
|-----------------4-5-4-0-|
|-3-55-3-5-3-5--3---------|

then

|-----------|
|-----------|
|---------5-|
|-5---3---5-| 
|-5---3---3-|
|-7---5-----|

in the second verse you play this at the end

|---------|
|---------|
|---------|
|-5--5--2-|
|-5--5--2-|
|-7--3--0-|

pre-chorus
("is there any way, is there any how, is there any word that jhon says..")

|-----------------|
|-----------------|
|--11-11--9--11-9-| x4
|--11-11--9--11-9-|
|-----------------|
|-----------------|

chorus
("bleeding...")
|------------------|
|------------------|
|-------7777-------| x4
|--5-5--7777-77777-|
|--5-5--5555-77777-|
|--3-3-------55555-|

then
("how could i, how could i...")
|------------|
|------------|
|------------|
|-77-55-2222-|
|-77-55-2222-|
|-55-33-0000-|

then

verse x1 (just play the second verse)

pre-chorus
|----------------|--------------|
|----------------|--------------|
|-11-11--9--11-9-|-11-11--9-11b-|
|-11-11--9--11-9-|-11-11--9-----|
|----------------|--------------|
|----------------|--------------|

chorus x1

i didn't remember the solo i don't have my guitar so i can remember it, i'll submit it later.

repeat the chorus till the song ends

this is just one guitar maybe you could figure out the second guitar

this is my first submited tab  i hope you like it

p.d. listen to the song so you can get the rythm and any mistakes my mail is jpunk_lavc13@hotmail.com


Tap to rate this tab
# A B C D E F G H I J K L M N O P Q R S T U V W X Y Z