Song name
# A B C D E F G H I J K L M N O P Q R S T U V W X Y Z

Beatles - Im Looking Through You tab

The Beatles 
I'm looking through you

---Intro----
  G                           D
e|7------ 7------ 7--7--- 7-\-5--|---5--- 5------ 5------ -------|
B|8-------8-------8--8----8-\-7--|---7----7-------7-------0------|
G|7-------7-------7--7----7-\-7--|---7----7-------7-------0------|
D|0-------0-------0--0----0------|---0----0-------0-------0------|
A|-------------------------------|-------------------------------|
E|-------------------------------|-------------------------------|

  G               C               G               C
e|3------ 3------ 3--3--- 3--3---|3------ 3------ 3--3--- 3--3---|
B|0-------0-------1--1----1--0---|0-------0-------1--1----1--0---|
G|0-------0-------0--0----0--0---|0-------0-------0--0----0--0---|
D|0-------0-------2--2----2--0---|0-------0-------2--2----2--0---|
A|2-------2-------3--3----3--2---|2-------2-------3--3----3--2---|
E|3-------3------------------3---|3-------3------------------3---|

----Verse----

G   C         Am          Em            D-Dsus2 
I'm looking through you, where did you go?
G     C      Am7       Em         D
I thought I knew you, what did I know?
Em               D   C         G    C     D
You don't look different, but you have changed
G      C       Am7       C7               G  C  G  C  G  C  G  C
I'm looking through you, you're not the same

e|3--3----------------|3--3----------------|
B|3--3---6p5p3--------|3--3---6p5p3--------|
G|-------------5p4----|-------------5p4----|
D|-----------------5--|-----------------5--|
A|--------------------|--------------------|
E|--------------------|--------------------|

---VERSE----

Your lips are moving, I cannot hear
Your voice is soothing, but the words aren't clear
You don't sound differnt, I've learned the game
I'm looking through you, you're not the same


----Bridge---

C                              G
Why, tell me why did you not treat me right
C                            Dsus        D
Love has a nasty habit of dissapearing over night


---VERSE---

You're thinking of me, the same old way
You were above me, but not today
The only difference is you're down there
I'm looking through you, any other way

----Bridge---

C                              G
Why, tell me why did you not treat me right
C                            Dsus        D
Love has a nasty habit of dissapearing over night

---VERSE 1---

---OUTRO---

e|3--3----------------|3--3----------------|
B|3--3---6p5p3--------|3--3---6p5p3--------|
G|-------------5p4----|-------------5p4----|
D|-----------------5--|-----------------5--|
A|--------------------|--------------------|
E|--------------------|--------------------|

G C G         C                G C G C              G       C
Yeah!, Well, baby you've changed, ah, I'm looking through you
Tap to rate this tab
# A B C D E F G H I J K L M N O P Q R S T U V W X Y Z