Song name
# A B C D E F G H I J K L M N O P Q R S T U V W X Y Z

Beatsteaks - Fix It tab

Beatsteaks - Fix It

Album: Boombox
Instrument: Guitar
Tuning: eBGDAE

Tabbed By: Rolf Oslo


Intro


e||-2--|
B||-x--|
G||-4--|
D||-4--|
A||-2--|
E||----|

e||-----------------|
B||-----------------|
G||-4/-7\-4/-7\-4---|
D||-4/-7\-4/-7\-4---|
A||-----------------|
E||-----------------| x2

e||------------------|------------------|------------------|-----------------|
B||------------------|------------------|------------------|-----------------|
G||-10\9-9-9-9-4-7-4-|-10\9-9-9-9-4-7-4-|-10\9-9-9-9-4-7-4-|-5\4-4-4-7-4-7-4-|
D||-10\9-9-9-9-4-7-4-|-10\9-9-9-9-4-7-4-|-10\9-9-9-9-4-7-4-|-5\4-4-4-7-4-7-4-|
A||------------------|------------------|------------------|-----------------|
E||------------------|------------------|------------------|-----------------|

e||------------------|------------------|------------------|-----------------|
B||------------------|------------------|------------------|-----------------|
G||-10\9-9-4-7-4-7-4-|-10\9-9-4-7-4-7-4-|-10\9-9-4-7-4-7-4-|-5\4-4-4-4-4-7-4-|
D||-10\9-9-4-7-4-7-4-|-10\9-9-4-7-4-7-4-|-10\9-9-4-7-4-7-4-|-5\4-4-4-4-4-7-4-|
A||------------------|------------------|------------------|-----------------|
E||------------------|------------------|------------------|-----------------|


Verse

e||------------------|------------------|------------------|-----------------|
B||------------------|------------------|------------------|-----------------|
G||-10\9-9-9-9-4-7-4-|-10\9-9-9-9-4-7-4-|-10\9-9-9-9-4-7-4-|-5\4-4-4-7-4-7-4-|
D||-10\9-9-9-9-4-7-4-|-10\9-9-9-9-4-7-4-|-10\9-9-9-9-4-7-4-|-5\4-4-4-7-4-7-4-|
A||------------------|------------------|------------------|-----------------|
E||------------------|------------------|------------------|-----------------| x2


Chorus

e||-----------------------|   |------------------------|
B||-12-12-10-11-12-12-10--|   |------------------------|
G||-----------------------|   |-9-9-9-9--9---10\-------|
D||-----------------------|   |-9-9-9-9--9---10\-------|
A||-----------------------|   |------------------------|
E||-----------------------|x7 |------------------------|

e||------------------|------------------|------------------|-----------------|
B||------------------|------------------|------------------|-----------------|
G||-10\9-9-9-9-4-7-4-|-10\9-9-9-9-4-7-4-|-10\9-9-9-9-4-7-4-|-5\4-4-4-7-4-7-4-|
D||-10\9-9-9-9-4-7-4-|-10\9-9-9-9-4-7-4-|-10\9-9-9-9-4-7-4-|-5\4-4-4-7-4-7-4-|
A||------------------|------------------|------------------|-----------------|
E||------------------|------------------|------------------|-----------------|

e||------------------|------------------|------------------|-----------------|
B||------------------|------------------|------------------|-----------------|
G||-10\9-9-4-7-4-7-4-|-10\9-9-4-7-4-7-4-|-10\9-9-4-7-4-7-4-|-5\4-4-4-4-4-7-4-|
D||-10\9-9-4-7-4-7-4-|-10\9-9-4-7-4-7-4-|-10\9-9-4-7-4-7-4-|-5\4-4-4-4-4-7-4-|
A||------------------|------------------|------------------|-----------------|
E||------------------|------------------|------------------|-----------------|


Verse

e||------------------|------------------|------------------|-----------------|
B||------------------|------------------|------------------|-----------------|
G||-10\9-9-9-9-4-7-4-|-10\9-9-9-9-4-7-4-|-10\9-9-9-9-4-7-4-|-5\4-4-4-7-4-7-4-|
D||-10\9-9-9-9-4-7-4-|-10\9-9-9-9-4-7-4-|-10\9-9-9-9-4-7-4-|-5\4-4-4-7-4-7-4-|
A||------------------|------------------|------------------|-----------------|
E||------------------|------------------|------------------|-----------------| x2


Chorus

e||-----------------------|   |-0--0--0--0--0--0--0--0--0--0--0--0--0--0--0--|
B||-12-12-10-11-12-12-10--|   |-12-11-11-11-11-11-11-11-11-11-11-11-11-11-11-|
G||-----------------------|   |----------------------------------------------|
D||-----------------------|   |----------------------------------------------|
A||-----------------------|   |----------------------------------------------|
E||-----------------------|x7 |----------------------------------------------|

Guitar #1
e||-----------------------|
B||-12-12-10-11-12-12-10--|
G||-----------------------|
D||-----------------------|
A||-----------------------|
E||-----------------------|

Guitar #2
e||----------------|
B||----------------|
G||----------------|
D||-2----5----7----|
A||-2----5----7----|
E||-0----3----5----|

Guitar #1 ends with
e||-0--0--0---|
B||-12-12-11--|
G||-----------|
D||-----------|
A||-----------|
E||-----------|

Tap to rate this tab
 
# A B C D E F G H I J K L M N O P Q R S T U V W X Y Z