Song name
# A B C D E F G H I J K L M N O P Q R S T U V W X Y Z

Beatsteaks - Summer tab

-------------------------------------------------------------------------------
			     Beatsteaks - Summer
-------------------------------------------------------------------------------
Tabbed by:saftcheck
Email:saftcheck_@arcor.de

Tuning:standard

Intro:
e|----------------|
B|----------------|
G|-6-6-6-6-6-6-6--|  x12
D|-6-6-6-6-6-6-6--|
A|----------------|
E|----------------|

Riff1:
e|-------------------------------|
B|-------------------------------|
G|-6-6-6-6-6-6-6-x-x-x-x-x-x-x-x-| x3
D|-6-6-6-6-6-6-6-x-x-x-x-x-x-x-x-|
A|-4-4-4-4-4-4-4-x-x-x-x-x-x-x-x-|
E|-4-4-4-4-4-4-4-x-x-x-x-x-x-x-x-|

e|--------------------------|
B|--------------------------|
G|-6-6-6-6-6-6-6---------6--|
D|-6-6-6-6-6-6-6---------6--|
A|-4-4-4-4-4-4-4-4-4-4-4-4--|
E|-4-4-4-4-4-4-4-0-2-0-2-4--|


Verse:

e|---------------|
B|---------------|
G|-6-6-6-6-6-6-6-| x8
D|-6-6-6-6-6-6-6-|
A|-4-4-4-4-4-4-4-|
E|-4-4-4-4-4-4-4-|

Chorus:

e|---------------------------------------------------|
B|---------------------------------------------------|
G|---------------------------------------------------| x2
D|-3-3-3-3-3-3-3-3-4-4-4-4-4-4-4-4-6-6-6-6-6-6-6-6---|
A|-3-3-3-3-3-3-3-3-4-4-4-4-4-4-4-4-6-6-6-6-6-6-6-6---|
E|-1-1-1-1-1-1-1-1-2-2-2-2-2-2-2-2-4-4-4-4-4-4-4-4---|

Riff1:
e|-------------------------------|
B|-------------------------------|
G|-6-6-6-6-6-6-6-x-x-x-x-x-x-x-x-| x3
D|-6-6-6-6-6-6-6-x-x-x-x-x-x-x-x-|
A|-4-4-4-4-4-4-4-x-x-x-x-x-x-x-x-|
E|-4-4-4-4-4-4-4-x-x-x-x-x-x-x-x-|

e|--------------------------|
B|--------------------------|
G|-6-6-6-6-6-6-6---------6--|
D|-6-6-6-6-6-6-6---------6--|
A|-4-4-4-4-4-4-4-4-4-4-4-4--|
E|-4-4-4-4-4-4-4-0-2-0-2-4--|


Verse:

e|---------------|
B|---------------|
G|-6-6-6-6-6-6-6-| x8
D|-6-6-6-6-6-6-6-|
A|-4-4-4-4-4-4-4-|
E|-4-4-4-4-4-4-4-|

Chorus:

e|---------------------------------------------------|
B|---------------------------------------------------|
G|---------------------------------------------------| x2
D|-3-3-3-3-3-3-3-3-4-4-4-4-4-4-4-4-6-6-6-6-6-6-6-6---|
A|-3-3-3-3-3-3-3-3-4-4-4-4-4-4-4-4-6-6-6-6-6-6-6-6---|
E|-1-1-1-1-1-1-1-1-2-2-2-2-2-2-2-2-4-4-4-4-4-4-4-4---|

Riff2:
e|--------------------------|
B|--------------------------|
G|-6---6--------------------| x8
D|-6---6---6h8p6------------|
A|-4---4---------9-8--------|
E|-4---4--------------------|

Intro:
e|----------------|
B|----------------|
G|-6-6-6-6-6-6-6--|  x8
D|-6-6-6-6-6-6-6--|
A|----------------|
E|----------------|

Chorus:

e|---------------------------------------------------|
B|---------------------------------------------------|
G|---------------------------------------------------| x2
D|-3-3-3-3-3-3-3-3-4-4-4-4-4-4-4-4-6-6-6-6-6-6-6-6---|
A|-3-3-3-3-3-3-3-3-4-4-4-4-4-4-4-4-6-6-6-6-6-6-6-6---|
E|-1-1-1-1-1-1-1-1-2-2-2-2-2-2-2-2-4-4-4-4-4-4-4-4---|


Bridge:
e|-----------------------------------------|
B|-----------------------------------------|
G|-6--6-6-6--------------------------------|
D|-6--6-6-6-3--3-4--4-6-4------------------|
A|-4--4-4-4-3--3-4--4-6-4------------------|
E|-4--4-4-4-1--1-2--2-4-2------------------|

Outro:
e|-------------------------------|
B|-------------------------------|
G|-6-6-6-6-6-6-6-x-x-x-x-x-x-x-x-| x5
D|-6-6-6-6-6-6-6-x-x-x-x-x-x-x-x-|
A|-4-4-4-4-4-4-4-x-x-x-x-x-x-x-x-|
E|-4-4-4-4-4-4-4-x-x-x-x-x-x-x-x-|

e|-----------------|
B|-----------------|
G|-6-6-6-6-6-6-6~--|
D|-6-6-6-6-6-6-6~--|
A|-4-4-4-4-4-4-4~--|
E|-4-4-4-4-4-4-4~--|

I know, a little part before the chorus is missing, mabye someone can figure that out, 
I think this tab sounds good - Have fun!!!


| /  slide up
| \  slide down
| h  hammer-on
| p  pull-off
| ~  vibrato
| +  harmonic
| x  Mute note
===============================================================================
Tap to rate this tab
 
# A B C D E F G H I J K L M N O P Q R S T U V W X Y Z