Song name
# A B C D E F G H I J K L M N O P Q R S T U V W X Y Z

Beatsteaks - Cheap Comments tab

Beatsteaks - Cheap Comments

Album: Boombox
Instrument: Guitar
Tuning: eBGDAE

Tabbed By: Rolf Oslo


Bass Intro

Poor boy tripping on good intentions 
girls got rhythm and expectations 
in a world gone mad under reconstruction 
I'm all washed up I guess I've had enough


Shala-la-la-la-la-la-la
e||---------------------------------|
B||---------------------------------|
G||---------------------------------|
D||-5-5-5-5-5-5-5-5-7-7-7-7-7-7-7-7-|
A||-5-5-5-5-5-5-5-5-7-7-7-7-7-7-7-7-|
E||-3-3-3-3-3-3-3-3-5-5-5-5-5-5-5-5-|


Of cheap comments and fake attractions 


Shala-la-la-la-la-la-la
e||---------------------------------|
B||---------------------------------|
G||---------------------------------|
D||-5-5-5-5-5-5-5-5-7-7-7-7-7-7-7-7-|
A||-5-5-5-5-5-5-5-5-7-7-7-7-7-7-7-7-|
E||-3-3-3-3-3-3-3-3-5-5-5-5-5-5-5-5-|


Back at square one you were zero to none 


e||-------|
B||-------|
G||-------|
D||-7-7-5-|
A||-7-7-5-|
E||-5-5-3-|


Bad-bad-bad-bad-bad-b-b-b-bad-bad-bad


e||-------|
B||-------|
G||-------|
D||-7-7-5-|
A||-7-7-5-|
E||-5-5-3-|


Bad-bad-bad-bad-bad-b-b-b-bad-bad-bad


e||---------------|
B||---------------|
G||-8-8-8-8-8-8-8-|
D||-7-7-7-7-7-7-7-|
A||-9-9-9-9-9-9-9-|
E||-7-7-7-7-7-7-7-|


With your head in the clouds spinning around


e||-------|
B||-------|
G||-------|
D||-7-7-5-|
A||-7-7-5-|
E||-5-5-3-|


You are miles ahead never wake up


e||-------|
B||-------|
G||-------|
D||-7-7-5-|
A||-7-7-5-|
E||-5-5-3-|


You hit this town up on cloud nine


e||-------|
B||-------|
G||-------|
D||-7-7-5-|
A||-7-7-5-|
E||-5-5-3-|


waiting to get paid take the money and


get back where you came from - get where you belong, it's
e||---------------------------------|
B||---------------------------------|
G||---------------------------------|
D||-5-5-5-5-5-5-5-5-7-7-7-7-7-7-7-7-|
A||-5-5-5-5-5-5-5-5-7-7-7-7-7-7-7-7-|
E||-3-3-3-3-3-3-3-3-5-5-5-5-5-5-5-5-|


Cheap comments and fake attractions


back to california - back where you belong, you're
e||---------------------------------|
B||---------------------------------|
G||---------------------------------|
D||-5-5-5-5-5-5-5-5-7-7-7-7-7-7-7-7-|
A||-5-5-5-5-5-5-5-5-7-7-7-7-7-7-7-7-|
E||-3-3-3-3-3-3-3-3-5-5-5-5-5-5-5-5-|


back at square one you were zero to none
(bass is actually playing this)
e||--------------------------------------|
B||--------------------------------------|
G||--------------------------------------|
D||--------------------------------------|
A||-11-10----11-10----11-10----11-10-----|
E||--------------------------------------|

E              C            A       C
back at square one you were zero to none


e||---------------------------------|
B||---------------------------------|
G||---------------------------------|
D||-5-5-5-5-5-5-5-5-7-7-7-7-7-7-7-7-|
A||-5-5-5-5-5-5-5-5-7-7-7-7-7-7-7-7-|
E||-3-3-3-3-3-3-3-3-5-5-5-5-5-5-5-5-|


Chea-chea-chea-chea-chea-chea-chea cheap cheap comments


Shala-la-la-la-la-la-la
e||---------------------------------|
B||---------------------------------|
G||---------------------------------|
D||-5-5-5-5-5-5-5-5-7-7-7-7-7-7-7-7-|
A||-5-5-5-5-5-5-5-5-7-7-7-7-7-7-7-7-|
E||-3-3-3-3-3-3-3-3-5-5-5-5-5-5-5-5-|

e||-----------------------|
B||-----------------------|
G||-----------------------|
D||-----------------7-7-5-|
A||-11-10----11-10--7-7-5-|
E||-----------------5-5-3-|


Bad-bad-bad-bad-bad-b-b-b-bad-bad-bad
e||--------------------------|
B||--------------------------|
G||------------8-8-8-8-8-8-8-|
D||-7-7-5------7-7-7-7-7-7-7-|
A||-7-7-5------9-9-9-9-9-9-9-|
E||-5-5-3------7-7-7-7-7-7-7-|


With your head in the clouds spinning around
you are miles ahead never wake up
you hit this town up on cloud nine 
waiting to get paid, take the money and

e||---------------------------------|
B||---------------------------------|
G||---------------------------------|
D||-5-5-5-5-5-5-5-5-7-7-7-7-7-7-7-7-|
A||-5-5-5-5-5-5-5-5-7-7-7-7-7-7-7-7-|
E||-3-3-3-3-3-3-3-3-5-5-5-5-5-5-5-5-|


It's cheap comments and fake attractions


e||---------------------------------|
B||---------------------------------|
G||---------------------------------|
D||-5-5-5-5-5-5-5-5-7-7-7-7-7-7-7-7-|
A||-5-5-5-5-5-5-5-5-7-7-7-7-7-7-7-7-|
E||-3-3-3-3-3-3-3-3-5-5-5-5-5-5-5-5-|


Guitar #1
e||----------------|
B||----------------|
G||----------------|
D||----------------|
A||---------11-10--|
E||-0-0-0-0--------|

Guitar #2
E-C-A-C
Tap to rate this tab
 
# A B C D E F G H I J K L M N O P Q R S T U V W X Y Z