Song name
# A B C D E F G H I J K L M N O P Q R S T U V W X Y Z

Beatsteaks - Vision tab

Beatsteaks
Smacksmash!

Vision


tabbed by: Baumi


Tuning Drop D


Intro:
|---------------------------|
|---------------------------|
|---------------------------|
|----5-4-5-4-54-5-444-54----|
|----3-2-3-2-32-3-222-32----|
|---------------------------|

Verse:
|----------------------------|------------------|------------------------|
|----------------------------|------------------|------------------------|
|----------------------------|------------------|------------------------|
|----------------------------|---------5-55555--|--8-8888-0--8-8888-0----|
|----------------------------|---------5-55555--|--8-8888-0--8-8888-0----|
|----666-00-00-777-00-00-888-|--000000-5-55555--|--8-8888-0--8-8888-0----|


Chorus:
|------------------------|
|------------------------|
|----5567----------------|
|----5567-77-77-78-55----|
|----3345-77-77-78-55----|
|---------77-77-78-55----|

|------------------------|
|------------------------|
|----5567----------------|  2nd guitar just sometimes
|--------77-77-78-55-----|
|------------------------|
|------------------------|


Bridge:
|-------------------------|
|-------------------------|
|----8-7-5-8-7-5----------|
|----8-7-5-8-7-5-3-2-0----|
|----6-5-3-6-5-3-3-2-0----|
|----------------3-2-0----|
Tap to rate this tab
# A B C D E F G H I J K L M N O P Q R S T U V W X Y Z