Song name
# A B C D E F G H I J K L M N O P Q R S T U V W X Y Z

Beatsteaks - Hail To The Freaks tab

Song: Hail to the Freaks
Artist: Beatsteaks
Album: Limbo Messiah bzw. Kanonen auf Spatzen
Tabbed by: Necriononguitar
E-mail: tim.rathgen@web.de

Tuning: normal

(Die Zeitangaben entsprechen der Live-CD)
Intro: 0:26
E----------------------------|
B----------------------------|
G----------------------------|
D---------4-h6--6---6-6------|
A----4-4---------------------|
E----------------------------|  x8

Ab dem 4. mal kommt die 2. Gitarre mit rein. (0:33)
E--------------------------|
B--------------------------|
G--------------------------|
D---4----------------------|
A---4--x24-----------------|
E---2----------------------|

Verse: 0:39
Die 1. Gitarre Spielt weiterhin das Intro
Die 2. spielt das hier:
E------------------------------------------|
B------------------------------------------|
G----6---------------------------4---------|
D----6--x24----4--------2--------4--x16----|
A----4---------4--x24---2--x16---2---------|
E--------------2--------0------------------|

Pre-Chorus: 0:58
Beide Gitarre spielen das hier:

E----------------------------------------------------------------------------------------|
B----------------------------------------------------------------------------------------|
G------------6--------4------------------6--------4-------2--------------4---------------|
D--4---------6--x8----4--x8-----4--------6--x8----4--x8---2--x8---2------4--x8-----------|
A--4--x8-----4--------2---------4--x8----4--------2-------0-------2-x8---2---------------|
E--2----------------------------2---------------------------------0----------------------|

E-----------------------|
B-----------------------|
G---6-------------------|
D---6--x24--------------|   "Weather is storm,set up..."
A---4-------------------|
E-----------------------|

(Für den Text fogenden Tab ansehen: Chords ver 2)

Verse: 1:19
Die 1. Gitarre spielt wieder das Intro
Die 2. spielt fast das Gleiche, hängt aber noch das hier vorne ran:
E---------------------|
B---------------------|
G---------------------|
D----4----------------|
A----4--x24-----------|
E----2----------------|
Also:
E------------------------------------------------------|
B------------------------------------------------------|
G-------------6---------------------------4------------|
D---4---------6--x24---4---------2--------4--x16-------|
A---4--x24----4--------4--x24----2--x16---2------------|
E---2------------------2---------0---------------------|

Pre_chorus: 1:44
Genau dasselbe, wie beim 1. Pre-Chorus
Nach wahl kann die 1. Gitarre aber das hier spielen:
E---------0-------------|
B---------0-------------|
G-----------------------|
D----4444---444---------|
A----4444---444---------|
E----2222---222---------|
Heißt:
E----------0--------------|
B----------0--------------|
G-------------------------|
D---4---------4-----------|
A---4--x4-----4--x3-------|
E---2---------2-----------|
Das ganze spielt man so bei jedem Akkord.

Dann wieder "Weather is storm,...)
E--------------------------|
B--------------------------|
G---6----------------------|
D---6--x24-----------------|
A---4----------------------|
E--------------------------|

Refrain: 2:05
Hier richtig reinhauen
E-----------------------------------|
B-----------------------------------|
G--------------6-------4------------|
D----7---------6--x8---4--x8--------|
A----7---x8----4-------2------------|
E----5------------------------------|

E-------------------------|
B-------------------------|
G----6--------------------|
D----6--x24---------------|
A----4--------------------|
E-------------------------|    " Set up ther suuuuunnnn..."

Bass- und Gitarrensolo: 2:22
Nur der Bass spielt. Bis 2:34
E------------4------7-----9------11------12----|
B-----5----------------------------------------|
G----------------------------------------------|
D----------------------------------------------|
A----------------------------------------------|
E----------------------------------------------|
Die töne einfach so stehen lassen.
Die 1. Gitarre spielt das Intro
Fallls es hilft: alle 2 mal der Intro-part wird ein weiterer Ton gespielt.

Pre-Chorus 2:53
Hier ist nur der Text vom Verse eingebaut, sonst die selbe Leiher.

Refrain: 3:14
Das selbe wie vorher.

Outro: 3:31
Die 1. Gitarre spielt alleine das Intro.

Bitte raten. --> Für Text auf "Hail to the Freaks chords ver. 2"
Tap to rate this tab
 
# A B C D E F G H I J K L M N O P Q R S T U V W X Y Z