Song name
# A B C D E F G H I J K L M N O P Q R S T U V W X Y Z

Beatsteaks - Let Me In tab

Dropped D Tuning
b = bend up

Intro:
|----|        |----|   |----|
|----|        |----|   |----|
|----|        |----|   |----|
|1---| x2     |1---|   |1---|
|1---|        |1---|   |1---|
|1---|        |1--3b|  |1---|

Verse:
|-------------------|
|-------------------|
|-------------------|
|-------------------|   x8
|-333---------------|
|----5554441113344--|

Pre Chorus:
|-------------------|  
|-------------------|
|-5-5---------------|
|-5-5---------------| x3      
|-3-3---------------|
|-------------------|

|----|
|----|
|5---|
|5---|
|3---|
|----|

Chorus:
|-------------------------------------------------------------|
|-------------------------------------------------------------|
|-888-------888-------8885------------------------------------|
|-8886------8885------8885x30---------------------------------|
|-6666x14---6665x14---6663------------------------------------|
|----6---------5----------------------------------------------|


Pre Chorus #2:
|-------------------------------------------------------------|
|-------------------------------------------------------------|
|-5-5---------------------------------------------------------|
|-5-5---------------------------------------------------------| x3
|-3-3---------------------------------------------------------|
|-----555544411133--------------------------------------------|

End of first Pre Chorus -> Chorus

|--3--------------|
|--4--------------|
|--3--------------|
|--5--------------| x4
|--3--------------|
|-----------------|

Verse with powerchords

Chorus    they play |----------------| sometimes at the end of the last one
                    |----------------|
                    |----------------|
                    |-1-1-1-1--------|
                    |-1-1-1-1--------|
                    |-1-1-1-1--------|

End with:

|----|
|----|
|5---| several times
|5---|
|3---|
|----|

have fun
Tap to rate this tab
 
# A B C D E F G H I J K L M N O P Q R S T U V W X Y Z