Song name
# A B C D E F G H I J K L M N O P Q R S T U V W X Y Z

Beck Jeff - Hi-ho Silver Lining tab

Jeff Beck - Hi-Ho Silver Lining


Here is Jeff Beck's classic song. Any problems, corrections, suggestions etc,
do not hesitate to email me at ajambler@btinternet.com.

Hope its ok for everyone.

Alan


Chords Used:
    D1 D2  G1 G2  C   A  
e|--5--10--7--3---8---5-|
B|--7--10--8--3---8---5-|
G|--7--11--7--4---9---6-|
D|--7--12--9--5---10--7-|
A|----------------------|
E|----------------------|

(Intro - Verse)
D1
	You're everywhere and no-where baby,
G1
thats where you're at,
C			G1
going down a bumpy hillside,
D2		  A
in your hippy hat.
D2
flying across the country,
G1
and getting fat,
C			G1
saying everything is groovy,
D2
when your tyres are flat,
A
and it's

(Chorus)
D2    C
Hi-ho silver lining,
G1		A  G2 A
anywhere you go now baby,
D2         C
I see your sun is shining,
G1			A G2
but i wont make a fuss,
D2
though its obvious.


(Verse - same pattern as 1st verse)
Flasher in your pea soup baby,
they're waving at me,
anything you want is yours now,
only nothings for free,
lies are going to get you someday,
just wait and see.
open up your beach umbrella,
while you're watching tv,
and it's

(Chorus)
Hi-ho silver lining,
anywhere you go now baby,
I see your sun is shining,
but i wont make a fuss,
though its obvious.

Solo:
(b/d means bend up and then back down)
(vvv means vibrato)
e|------------------------------------------------|
B|-----------------------------10b--10b-10b--10b--|
G|------------------------------------------------|
D|------------------------------------------------|
A|--/12--/7-7-7-5-7-5-7p5\4-----------------------|
E|------------------------------------------------|

e|---------------------------------|
B|--10--12--/13-/13-/13-/13-/13-12-|
G|---------------------------------|
D|---------------------------------|
A|---------------------------------|
E|---------------------------------|

e|-----------------------------------------------------------|
B|--10h12p10--10h12p10--10p9h10------10-10-------------------|
G|-----------------------------------9b-9b-9b/d-9b/d--9b/d-7-|
D|-----------------------------------------------------------|
A|-----------------------------------------------------------|
E|-----------------------------------------------------------|

e|-----------------------------------------------------------------------|
B|--10b--10b-10b--10b(vvv)----10-12--13p12p10-13p12p10-13p12p10-13p12p10-|
G|-----------------------------------------------------------------------|
D|-----------------------------------------------------------------------|
A|-----------------------------------------------------------------------|
E|-----------------------------------------------------------------------|

e|-------------------------------------------------------------------------|
B|-13-12----15-14-15--17---------15-17--/19---19\17------------------------|
G|-------------------------------------------------------------------------|
D|-------------------------------------------------------------------------|
A|-------------------------------------------------------------------------|
E|-------------------------------------------------------------------------|

Hi-ho silver lining,
anywhere you go now baby,
I see your sun is shining,
but i wont make a fuss,
though its obvious.

Hi-ho silver lining,
anywhere you go now baby,
I see your sun is shining,
but i wont make a fuss,
though its obvious.

And thats it! keep on pluckin.

Alan
Tap to rate this tab
 
# A B C D E F G H I J K L M N O P Q R S T U V W X Y Z