Song name
# A B C D E F G H I J K L M N O P Q R S T U V W X Y Z

Beck Mongolian Chop Squad - Like A Foojin tab

drop the last string to d

Starts at: 00:10 to 00:11 - Intro -
G || ----------------------------------------------------------------------- --||
D || ----------------------------------------------------------------------- --||
A || --1-----------------1------------------------------------------------- ---||
D || ---313-131-313-1--------------------------------------------------- ------||
(00:12) to (00:21) - Intro -
G || ----------------------------------------------------------------------- ---||
D || ----------------------------------------------------------------------- ---||
A || --------------------1-------------------------------------------------- ---|| x3
D || ---313-131-313-1--------------------------------------------------- -------||
(00:22) to (00:44) - Verse -
G || ----------------------------------------------------------------------- ---||
D || ----------------------------------------------------------------------- ---||
A || --------------------1-------------------------------------------------- ---|| x7
D || ---313-131-313-1--------------------------------------------------- -------||
(00:45) to (0:54) - Pre Chorus -
G || ----------------------------------------------------------------------- --||
D || ----------------------------------------------------------------------- --||
A || --------------------1-------------------------------------------------- --||
D || ---313-131-313-1--Short Pause--1111111111111----------------- ------------||
(00:55) to (01:07) - Chorus -
G || ----------------------------------------------------------------------- --||
D || ----------------------------------------------------------------------- --||
A || --------------------0----0----------------0000000----------------- -------||
D || ---3--3-6--6-4--4------3--3-6--6-4-4---------------------------- ---------||
(01:08 ) to (01:20) - Chorus -
G || ----------------------------------------------------------------------- --||
D || ----------------------------------------------------------------------- --||
A || ----------------------------------------------00000000------------ -------|| x2
D || ----33333333--66666666--44444444------------------------- ----------------||
(01:21) to (01:30) - Break -
G || ----------------------------------------------------------------------- ------||
D || ----------------------------------------------------------------------- ------||
A || ---------------------1------------------------------------------------- || x 3||
D || ----313-131-313-1-------------------------------------------------- ----------||
(01:31) to (01:33) - Break -
G || ----------------------------------------------------------------------- --||
D || ----------------------------------------------------------------------- --||
A || ----------------------------------------------------------------------- --||
D || ----313-131-31------------------------------------------------------ -----||
(01:34) to .....- Verse -
G || ------------------------------------------------------------------------ --||
D || ------------------------------------------------------------------------ --||
A || ---1-----------------1-------------------------------------------------- --||
D || ----313-131-313-1--------------------------------------------------- ------||
..... to (01:43) - Verse -
G || ----------------------------------------------------------------------- ---||
D || ----------------------------------------------------------------------- ---||
A || --------------------1-------------------------------------------------- ---|| x2
D || ---313-131-313-1--------------------------------------------------- -------||
(01:44) to (01:46) - Verse -
G || ----------------------------------------------------------------------- --||
D || ----------------------------------------------------------------------- --||
A || ----------------------------------------------------------------------- --||
D || ----313-131-31------------------------------------------------------ -----||
(01:47) to .... - Verse -
G || ------------------------------------------------------------------------ --||
D || ------------------------------------------------------------------------ --||
A || ---1-----------------1------------------------------------------------- ---||
D || ----313-131-313-1--------------------------------------------------- ------||
....to (01:56) - Verse -
G || ----------------------------------------------------------------------- ---||
D || ----------------------------------------------------------------------- ---||
A || --------------------1-------------------------------------------------- ---|| x2
D || ---313-131-313-1--------------------------------------------------- -------||
(01:57) to (2:05) - Pre Chorus -
G || ----------------------------------------------------------------------- --||
D || ----------------------------------------------------------------------- --||
A || --------------------1-------------------------------------------------- --||
D || ---313-131-313-1--Short Pause--1111111111111----------------- ------------||
(02:06) to (02:18 ) - Chorus -
G || ----------------------------------------------------------------------- --||
D || ----------------------------------------------------------------------- --||
A || ---------------------0--0------------------0000000---------------- -------||
D || ---3--3-6--6-4--4--------3--3-6--6-4-4-------------------------- ---------||
(02:19) to (02:31) - Chorus -
G || ----------------------------------------------------------------------- --||
D || ----------------------------------------------------------------------- --||
A || ----------------------------------------------00000000------------ -------|| x2
D || ----33333333--66666666--44444444------------------------- ----------------||
(02:32) to (02:38 ) - Chorus -
G || ----------------------------------------------------------------------- --||
D || ----------------------------------------------------------------------- --||
A || ----------------------------------------------00000000------------ -------||
D || ----33333333--66666666--44444444------------------------- ----------------||
(02:39) to (02:45) - Outro -
G || ----------------------------------------------------------------------- --||
D || ----------------------------------------------------------------------- --||
A || ----------------------------------------------00000000------------ -------||
D || ----33333333--66666666--44444444-------------3---------- -----------------||
Tap to rate this tab
 
# A B C D E F G H I J K L M N O P Q R S T U V W X Y Z