Song name
# A B C D E F G H I J K L M N O P Q R S T U V W X Y Z

Beck Mongolian Chop Squad - Dont You Mess With Me Baby tab

BECK (Mongolian Chop Squad)
Don't Mess With Me, Baby
Episode 25

Tab provided by (http://www.youtube.com/watch?v=j-P93BZCBV0),
couldn't find one here, so here you go.

e|-----------------------------------------------------------------|
B|-----------------------------------------------------------------|
G|-----------------------------------------------------------------|
D|---------------------------------2-2-4-2-2-2-4-2-2-2-4-2-2-2-4-2-|
A|-2-2-4-2-2-2-4-2-2-2-4-2-2-2-4-2-0-0-0-0-0-0-0-0-0-0-0-0-0-0-0-0-|
E|-0-0-0-0-0-0-0-0-0-0-0-0-0-0-0-0---------------------------------|


e|---------------------------------------5--5-5------------------|
B|---------------------------------4-4-4-4--4-4-0-2--------------|
G|---------------------------------4-4-4-4--4-4-0-2--------------|
D|---------------------------------4-4-4-4--4-4---2----------2---|
A|-2-2-4-2-2-2-4-2-2-2-4-2-2-2-4-2-2-2-2---------------------2---|
E|-0-0-0-0-0-0-0-0-0-0-0-0-0-0-0-0---------------------------0---|


e|-3-2-0------------------------|
B|-------3-2-0----------------3-|
G|-------------2^3^2-0--------1-|
D|---------------------2------2-|
A|----------------------------2-|
E|--------------------------0---|


^ = bend
Tap to rate this tab
# A B C D E F G H I J K L M N O P Q R S T U V W X Y Z