Song name
# A B C D E F G H I J K L M N O P Q R S T U V W X Y Z

Beck Mongolian Chop Squad - Moon On The Water tab

This is the first song I've tabbed. Its a compilation of the best tabs Ive found on 
numerous sites.
It may be a bit longer than the original. I did'nt really tab this out, so much as make 
a tab on this site because I really dont like any single one of them I've seen.
So I took bits and pieces of numerous ones.

I believe this one to be more like the one Koyuki and Maho sing at the pool, not the 
secret live the TDB did.

If you find any mistakes, or have any suggestions. Email me at thompsonpshane@gmail.com

|Song from BECK Mongolian Chop squad./The Dying Breed.|


   (E)                       (Asus2)
|--0-----0--------------------0--------------|
|--0-------0------------------0-----0--------|
|--1---------3----------------2--------------|
|--2--------------------------2---2---2-1----|
|--2---2----------------------0--------------|
|--0--------------------------0--------------|



|------0------------0-------------0----------|
|------0------------0---------------0--------|
|------4------------4-----------------2------|
|----2------------2-------------2------------|
|--4------------2-------------0--------------|
|--------------------------------------------|

(for climactic build up to chorus)
    Asus2
|--0-0-0-0--|
|--0-0-0-0--|
|--0-0-0-0--| x3
|--2-2-2-2--|
|--0-0-0-0--|
|-----------|

(chorus)
|4--4--0--0--0--0--0--0|
|5--5--0--0--0--0--0--0|
|6--6--2--2--1--1--4--4|
|6--6--2--2--2--2--4--4|
|4--4--0--0--2--2--2--2|
|0--0--------0--0------|

|--2--2--2--2--2--2--2--2--2--2--2|
|--2--2--2--2--2--2--2--2--2--2--2|
|--2--2--2--2--2--2--2--2--2--2--2|
|--4--4--4--4--4--4--4--4--4--4--4|
|--4--4--4--4--4--4--4--4--4--4--4|
|--2--2--2--2--2--2--2--2--2--2--2|

|--0--0--0--0--0--0--0--0--0--0--0|
|--0--0--0--0--0--0--0--0--0--0--0|
|--2--2--2--2--2--2--2--2--2--2--2|
|--2--2--2--2--2--2--2--2--2--2--2|
|--0--0--0--0--0--0--0--0--0--0--0|
|---------------------------------|

This part makes a nice outro. Its a bit that I do out of preference really.
|----0-------5--------------------------0---------0------|
|-----0-------5-------4h5----2h4-----0---0-0---0---------|
|------3-------8----------------------2---2-----2--------|
|-------------------6------4-------2----------2----------|
|--2-------7-------4------2-------0----------0-----------|
|-0-------5----------------------------------------------|
Tap to rate this tab
 
# A B C D E F G H I J K L M N O P Q R S T U V W X Y Z