Song name
# A B C D E F G H I J K L M N O P Q R S T U V W X Y Z

Beck - Black Tambourine tab

this is my first tab so i hope u like it
main riff
e|---9/11--11-11-11-11-11-----9/11--11-11-11-11-11--9---------------------|
B|---9/11--11-11-11-11-11-----9/11--11-11-11-11-11--9---------------------|
G|---10/12-12-12-12-12-12-----10/12-12-12-12-12-12--10--------------------|
D|---11/13-13-13-13-13-13-----11/13-13-13-13-13-13--11--------------------|
A|---11/13-13-13-13-13-13-----11/13-13-13-13-13-13--11--------------------|
E|---9/11--11-11-11-11-11-----9/11--11-11-11-11-11--9---------------------|

outro
e|---9-9-9-9-6-6---------6-6------------------------------------------|
b|---------------9-9-9-9----------------------------------------------|
g|--------------------------------------------------------------------|
d|--------------------------------------------------------------------|
a|--------------------------------------------------------------------|
e|--------------------------------------------------------------------|
Tap to rate this tab
 
# A B C D E F G H I J K L M N O P Q R S T U V W X Y Z