Beck - Everybodys Gotta Learn Sometime chords

Highlighted       Show chord diagrams
Everybody's Gotta Learn Sometime - Beck (originally by The Korgis)

These are some simple voicings I use:

   Gm    Gm/F  Gm/E  Cm   Dm    Eb   Cm6   F     F/Eb  Bb    Bb/E
e ---------------------------------------------------------------|
B -3-----3-----3-----1-----3----4----1-----1-----1-----3-----3---|
G -3-----3-----3-----0-----2----3----2-----2-----2-----3-----3---|
D -5-----3-----2-----1-----3----5----1-----3-----1-----3-----2---|
A ---------------------------------------------------------------|
E ---------------------------------------------------------------|

Intro/verse part:
   Gm            Gm/F Gm/E     Cm
e --------------------------------------------|
B -3---3---3---3---3---3---3---1---1----------|
G -3---3---3---3---3---3---3---0---0----------|
D -5---3---5---0---3---2---2---1---1----------|
A --------------------------------------------|
E --------------------------------------------|

Gm             Gm/F Gm/E     Cm
Change your heart
      Gm       Gm/F Gm/E     Cm
Look around you
Gm             Gm/F Gm/E     Cm
Change your heart
         Gm    Gm/F Gm/E     Cm
It will astound you
Gm              D
I need your lovin'
Cm           F F/Eb
Like the sunshine

Dm                      Eb        Cm6
Everybody's gotta learn sometime
Dm                      Eb        Cm6
Everybody's gotta learn sometime
Dm                      Eb        F
Everybody's gotta learn sometime

Bb Bb/E    x 4

(repeat verse and chorus)
Bb Bb/E
Bb Bb/E

(chorus)
Bb Bb/E
Bb Bb/E

(solo over chorus chords)
Bb Bb/E

(solo over chorus chords)
Bb Bb/E    x 4
Tap to rate this tab
 
# A B C D E F G H I J K L M N O P Q R S T U V W X Y Z