Song name
# A B C D E F G H I J K L M N O P Q R S T U V W X Y Z

Beck - Summertime tab

I figured this belonged here more than under Sex Bob-Omb tabs seeing as it's his. The 
go something like this:

e|-------------|
B|-------------|
G|-5--10-5--9--|
D|-5--10-5--9--|
A|-3--8--3--7--|
E|-------------|

e|-----------------|
B|-----------------|
G|-9-9-2----9-9-2--|
D|-9-9-2----9-9-2--|
A|-7-7-0----7-7-0--|
E|-----------------|

e|-------------|
B|-------------|
G|-9-9-7----4--|
D|-9-9-7----4--|
A|-7-7-5----2--|
E|-------------|
Tap to rate this tab
 
# A B C D E F G H I J K L M N O P Q R S T U V W X Y Z