Song name
# A B C D E F G H I J K L M N O P Q R S T U V W X Y Z

Beck - Loser tab

Tuning;DADGBe (Low to high)

Main Riff: (Slide suggested)
e|----------------------------------|
B|----------------------------------|
G|----------------------------------|
D|0/5--0/5--0---7\1-----------------|
A|0/5--0/5--0---7\1-----------------|
D|0/5--0/5--0---7\1-----------------|

Verse Riff:
e|----------------------------------|
B|----------------------------------|
G|------7-9-7-9s11-11-9-7-----------|
D|----0-----------------------------|
A|----------------------------------|
D|----------------------------------|

Well thats all you really need to play this song, its very simple on guitar
This is my first tab, so constructive criticism is welcome. For comments or other input, 
email me at ofg26e@hotmail.com
Tap to rate this tab
 
# A B C D E F G H I J K L M N O P Q R S T U V W X Y Z