Song name
# A B C D E F G H I J K L M N O P Q R S T U V W X Y Z

Before The Dawn - Judgement tab

Intro
|-----------------------------------------------------|
|-----------------------------------------------------|
|2--2-------------------5--5--5----------------4h5p4--|
|2--2------0--0--0------5--5--5------5--5------------5|
|0--0------0--0--0------3--3--3------5--5-------------|
|------0-0-0--0--0--0-0----------0-0-5--5--0-0--------|
       . .          . .          . .       . .
|-----------------------------------------------------|
|-----------------------------------------------------|
|-2--2-------------------5--5--5----------------------|
|-2--2------0--0--0------5--5--5------5--5--5------0-0|
|-0--0------0--0--0------3--3--3------5--5--5------0-0|
|-------0-0-0--0--0--0-0----------0-0-5--5--5--0-0-0-0|
        . .          . .          . .          . .
|-----------------------------------------------------|
|-----------------------------------------------------|
|2--2-------------------5--5--5----------------4h5p4--|
|2--2------0--0--0------5--5--5------5--5------------5|
|0--0------0--0--0------3--3--3------5--5-------------|
|------0-0-0--0--0--0-0----------0-0-5--5--0-0--------|
       . .          . .          . .       . .
|------------------------------------------------------|
|------------------------------------------------------|
|-2--2-------------------5--5--5-------------------2---|
|-2--2------0--0--0------5--5--5------5--5--5------2--0|
|-0--0------0--0--0------3--3--3------5--5--5------0--0|
|-------0-0-0--0--0--0-0----------0-0-5--5--5--0-0----0| 2x Fade out after the second time
        . .          . .          . .          . .
Verse
|---------------------------------------------------------|
|---------------------------------------------------------|
|---------------------------------------------------------|
|0--------------3-------------5-------------0-------------|
|0--------------3-------------5-------------0-------------|
|0--------------3-------------5-------------0-------------| 2x

Play intro

Chorus
|-----------------------------------------------------------------------------------------------|
|-----------------------------------------------------------------------------------------------|
|-----------------------------------------------------------------------------------------------|
|12-12-12-12-12-12-12-12-12-12-12-12-12-12-12-12-10-10-10-10-10-10-10-10-14-14-14-14-14-14-14-14|
|-----------------------------------------------------------------------------------------------|
|-----------------------------------------------------------------------------------------------|

|------------------------------------------------------------------------------------------------|
|------------------------------------------------------------------------------------------------|
|------------------------------------------------------------------------------------------------|
|-15-15-15-15-15-15-15-15-15-15-15-15-17-17-17-17-14-14-14-14-14-14-14-14-10-10-10-10-10-10-10-10|
|------------------------------------------------------------------------------------------------|
|------------------------------------------------------------------------------------------------|2x
                                         
After played twice end on 12 and let it ring than jump into the intro

Play verse

Play intro

Play Chorus

Solo
|---------------------------------------------------------------------------------------|
|---------------------------------------------------------------------------------------|
|--------------------------------------------5p3-----2h3/5/7~7~~\9h11h12-12-12-12bb10---|
|12-12-12-12-12-12-12~~\/10~~8--7-8-7~~3~~0------3-5----------------------------------12|
|---------------------------------------------------------------------------------------|
|---------------------------------------------------------------------------------------|

|---------------------------------------|
|---------------------------------------|
|----13---------------------------------|
|-12b---12bb12--10-----9h10p9h10-12-----|
|-------------------12--------------12~~|
|---------------------------------------|

After playing this jump right into the chorus and end on 12 to finish the song
Tap to rate this tab
# A B C D E F G H I J K L M N O P Q R S T U V W X Y Z