Song name
# A B C D E F G H I J K L M N O P Q R S T U V W X Y Z

Ben Folds Five - Sky High tab

|-------5---------5---------5---------5----|
|-----5---5-----5---5-----5---5-----5---5--|
|------------------------------------------|
|------------------------------------------|
|--5---------4---------2---------0---------|
|------------------------------------------|

|-------5---------5---------5---------5----|
|-----5---5-----5---5-----5---5-----5---5--|
|------------------------------------------|
|------------------------------------------|
|--5---------4---------2---------0---------|
|------------------------------------------|

Just repeats like that.
Tap to rate this tab
 
# A B C D E F G H I J K L M N O P Q R S T U V W X Y Z