Song name
# A B C D E F G H I J K L M N O P Q R S T U V W X Y Z

Ben Gibbard - Overture tab

Help us improve GuitareTab! Take a short survey!
You may have heard this song from the movie Kurt Coabin About A Son. Well this is the 
at the beginning and this is what I got so far.

 ---------------|---------------------------------------------|
 ----------7----|-------------7-------------------------------|
 -------7-------|--------7------------------------------------|
 ---0-----------|---0-----------------------------------------|
 ---------------|---------------------------------------------|
 ---------------|---------------------------------------------|

 ------------------------------------------------------------|
 ------------------------------------------------------------|
 -----0--2--0--2--0----------0--2--0--2--0-------------------|
 ---0----------------------0---------------------------------|
 ------------------------------------------------------------|
 ------------------------------------------------------------|

And that's all that I have. It's a VERY little known song, but a great one.
Thanks.
Related for Overture tab