Ben Howard - Cloud Nine tab

Tuning: Open C (low to high CGCGCE)
Capo 3

He does this percussive guitar thing but you can just strum and it'll sound fine.

Intro/Verse:

Alternates between these two chords (relative to capo)

E----3-------0---------------------------------------|
C----0-------0---------------------------------------|
G----2-------0---------------------------------------|
C----0-------5---------------------------------------|
G----2-------5---------------------------------------|
C----0-------5---------------------------------------|


Chorus/Outro: (So may your worries...)

E-----3-------0-------0---------0------------------------|
C-----0-------0-------0---------0------------------------|
G-----2-------4-------5---------0------------------------|
C-----0-------2-------4---------5------------------------|
G-----2-------4-------5---------5------------------------|
C-----0-------0-------0---------5------------------------|



That's about it.  Have fun!

http://www.myspace.com/benhoward
Tap to rate this tab
 
# A B C D E F G H I J K L M N O P Q R S T U V W X Y Z