Song name
# A B C D E F G H I J K L M N O P Q R S T U V W X Y Z

Ben Howard - The Wolves tab

-------------------------------------------------------------------------------
			     SONG NAME - Band Name
-------------------------------------------------------------------------------
Tabbed by: Callum Arnold
Email:

Tuning:CGCGGc

I've tabbed out the RockFeeback On Location version as its easier to see what's 
going on. I'm pretty sure its the same as the album, as he seems to play this in 
all of his other versions.

Intro

c|-----------|----------|-----------|----------|---9-7p0-0-0-0-|---9-7p0-0-0-0-|
G|-----------|----------|-----------|----------|---0-0---9-7-9-|---0-0---9-7-9-|
G|-----------|----------|-----------|----------|---------------|---------------|
C|-9---------|----------|-7---------|----------|-9-------9-9-9-|-9-------9-9-9-|
G|-----------|----------|-----------|----------|---------------|---------------|
C|-----------|----------|-----------|----------|---------------|---------------|

c|---0-0---7-0-0-|---0-0---7-0-0-|
G|---7-9p0-0-9-7-|---7-9p0-0-9-7-|
G|---------------|---------------|
C|-7-------7-7-7-|-7-------7-7-7-|
G|---------------|---------------|
C|---------------|---------------|

Verse

c|---9-7p0-0-0-0-|---9-7p0-0-0-0-|---0-0---7-0-0-|---0-0---7-0-0-|
G|---0-0---9-7-9-|---0-0---9-7-9-|---7-9p0-0-9-7-|---7-9p0-0-9-7-|
G|---------------|---------------|---------------|---------------|
C|---------------|---------------|---------------|---------------|
G|---------------|---------------|---------------|---------------|
C|-9-------9-9-9-|-9-------9-9-9-|-7-------7-7-7-|-7-------7-7-7-|

Ben mixes it up between these two.

c|---------0-0-0-|---------0-0-0-|---0-0---7-0-0-|---0-0---7-0-0-|
G|---------9-7-9-|---------9-7-9-|---7-9p0-0-9-7-|---7-9p0-0-9-7-|
G|---0-0---------|---0-0---------|---------------|---------------|
C|---9-7p0-------|---9-7p0-------|---------------|---------------|
G|---------------|---------------|---------------|---------------|
C|-9-------9-9-9-|-9-------9-9-9-|-7-------7-7-7-|-7-------7-7-7-|

Chorus

c|------------|------------|---0---0-0-0-0-0-0-0-|---0---0-0-0-0-0-0-0-|
G|------------|------------|---0---0-0-0-0-0-0-0-|---0---0-0-0-0-0-0-0-|
G|---7-7-7--5-|---9-9--7---|---0---0-0-0-0-0-0-0-|---0---0-0-0-0-0-0-0-|
C|------------|------------|---0---0-0-0-7-0-0-0-|---0---0-0-0-7-0-0-0-|
G|------------|------------|---7h9-9-9-9-0-9-7-9-|---7h9-9-9-9-0-9-7-9-|
C|-5----------|-9------7---|-9-9---9-9-9-9-9-9-9-|-9-9---9-9-9-9-9-9-9-|

c|---0---0-0-0-0-0-0-0-|---0---0-0-0-0-0-0-0-|
G|---0---0-0-0-0-0-0-0-|---0---0-0-0-0-0-0-0-|
G|---0---0-0-0-0-0-0-0-|---0---0-0-0-0-0-0-0-|
C|---0---0-0-0-7-0-0-0-|---0---0-0-0-7-0-0-0-|
G|---7h9-9-9-9-0-9-7-9-|---7h9-9-9-9-0-9-7-9-|
C|-0-0---0-0-0-0-0-0-0-|-0-0---0-0-0-0-0-0-0-|

Outro

c|---+12------|---+12------|---+12------|---+12------|
G|---+12------|---+12------|---+12------|---+12------|
G|---+12------|---+12------|---+12------|---+12------|
C|---+12------|---+12------|---+12------|---+12------|
G|---+12------|---+12------|---+12------|---+12------|
C|-9----------|-9----------|-0----------|-0----------|

Throughout the song Ben adds various little riffs but this changes on each 
version, so I thought I'd just get the basics down. Also I haven't tabbed exactly 
the amount of strums or timing but its easy enough to pick this up from the song.

Structure

Intro
Verse
Chorus
Verse - he strums this
Chorus - once again strums, but on the little bridge section he uses the version below
Outro - strumming

c|-0--0-0-0-|-----0-|
G|-0--0-0-0-|-----0-|
G|-5--5-5-5-|-9---7-|
C|-7--7-7-0-|-12--0-|
G|-0--0-0-0-|-0---0-|
C|-5--5-5-5-|-9---7-|

************************************

| /   slide up
| \   slide down
| h   hammer-on
| p   pull-off
| ~   vibrato
| +   harmonic
| x   Mute note
| b   Bend
| pb  Pre-bend
| br  Bend release
| pbr Pre-bend release
| brb Bend release bend

************************************
Tap to rate this tab
 
# A B C D E F G H I J K L M N O P Q R S T U V W X Y Z