Beneath The Sky - Another Day tab

jUST THE FIRST RIFF AND THE SOLO FOR NOW

D|-------------------------------|-------------------------------|
A|-------------------------------|-------------------------------|
F|-------------------------------|-------------------------------| x4
C|-----3-----3-----3-----3-------|---0-----0-----0-----0-----0---|
G|---5-----5-----5-----5-----5-0-|-----8-----8-----8-----8-----0-|
C|-0-----0-----0-----0-----0-----|-8-----8-----8-----8-----8-----|


Solo

D|------------------------------------------------------------|
A|------------------------------------------------------------|
F|-(7)-(5)-(3)-3h5p3---3--------------------------------------|
C|-------------------5---5-3/5-3------------------------------|
G|-------------------------------5-3-5-3h5p3-1---1------------|
C|---------------------------------------------5---5-3-3-3/5--|


D|-----------------------------11----------------|
A|--------11h13p11----11-13/15----13h15p13-11----|
F|-/12-12----------12-------------------------12-|
C|-----------------------------------------------|
G|-----------------------------------------------|
C|-----------------------------------------------|


D|-----18-17-15h17p15----15----------------------------------------|
A|--------------------18----18-15-13/15-18-15\13-------------------|
F|-/15-------------------------------------------15-12-10----------|
C|--------------------------------------------------------10/12-10-|
G|-----------------------------------------------------------------|
C|-----------------------------------------------------------------|
Tap to rate this tab
 
# A B C D E F G H I J K L M N O P Q R S T U V W X Y Z